Oops, an error
Loading. Please wait.

Questing Not Coasting tab

1,059 views 3 this week
2 commentsread comments
1 2 3 4 5
x 5
add to favorites
×
Save as Personal and add changes to this tab that will be seen only by you. Learn more ›
×
You can save this tab as Personal to edit and correct it or add notes. All changes will be seen only by you. Learn more »
launch autoscroll
font size
0
reset
how to read this tab
guitar tuner
edit
Autoscroll
slow
fast
+/-
esc
set tempo
stop
Author
-------------------------------------------------------------------------------
Questing, Not Coasting
-------------------------------------------------------------------------------
Tabbed by: Giuseppe Landolina
Tuning: Standard

Main Riff:
e|----2-----------------------------------|
B|------2---------------------------------|
G|--------4-------------------------------|
D|----------22----------------------------|
A|------------44-22-4-2-------------------|
E|----------------------------------------|

Will add the rest of the song in an edit later on.

            
            
Suggest correction
Creating personal tab
Creating personal tab
You can edit any tab online and save it as your Personal.

You can edit, replace or remove any tab part or add personal notes – all changes will be seen only by you.

Personal tabs can be accessed anytime from any device, even offline.
Learn more »
comments
print report bad tab
2 comments total.
0 reply
smithy2k6mert 10 Jun 27, 2009 04:41 PM

arrgh, need all the song the guitar in it is quality, accurate first bit though (Y)

0 reply
jxmxsc 129 May 02, 2011 06:29 AM

e|----2-----------------------------------|
B|------2---------------------------------|
G|--------4-22----------------------------|
D|------------44-22-4-2-------------------|
A|----------------------------------------|
E|----------------------------------------|

Almost right... just got some of the strings wrong towards the end

guest
You may want to rate the tab now too:
select rating
Wanna post a correction for this tab? Suggest correction