Oops, an error
Loading. Please wait.

Overkill bass

version 1
version 1

Whole song

Interactive

36,332 views 27 this week
2 commentsread comments
1 2 3 4 5
x 7
add to favorites
×
Save as Personal and add changes to this tab that will be seen only by you. Learn more ›
×
You can save this tab as Personal to edit and correct it or add notes. All changes will be seen only by you. Learn more »
launch autoscroll
font size
0
reset
guitar tuner
backing track
0:00
0:00
edit
Autoscroll
slow
fast
+/-
esc
set tempo
stop
Author
Overkill – Motorhead
Standard Tuning (E,A,D,G)


Rest:(0:00)


[Intro]

(0:08)

G|----8-8-8-8-8-8-8-8-8-8-8-8-8-8-8-8-8-8-8-8-8-8-8-8-7-8-7-8-7-8-7-8--|
D|---------------------------------------------------------------------|
A|---------------------------------------------------------------------|
E|---------------------------------------------------------------------|


[Verse]

(0:16)

G|---------------------------|
D|---------------------------|    x4
A|----6-6-6-6-6-6-6-6-6-4----|
E|---------------------------|

G|---------------------------|
D|----4~------6-4~-----6-----|    x4
A|---------------------------|
E|---------------------------|

G|------------------------------|
D|------------------------------|  \
A|----0-2~------0-2~------------|   \
E|---------------------------\--| x2

G|---------------------------------|        /
D|-----------4---------4-6---------|    x2 /
A|----6-6-6-6-6-6-6-6-6------------|      /
E|---------------------------------|     /


[Chorus]

(0:48)

G|-------------------6---|
D|----3---3653-53---5----|
A|-----------------------|
E|-----------------------|

[Post-Chorus]

(0:56)

G|---------------------|
D|---------4-----4-----|    x4
A|----66666-66666------|
E|---------------------|


[Verse]

(1:04)


[Chorus]

(1:28)


[First guitar solo]

(1:37)

G|---------------------|
D|----6666-66-66-64----|    x8
A|---------------------|
E|---------------------|

G|---------------------|
D|---------------------|    x4
A|----6666-66-66-64----|
E|---------------------|


[Verse]

(2:01)


[Chorus]

(2:25)


[Solo]

(2:34)

G|-------------------------------------------|
D|------------33333333444444446-4-6-4-64-----|    x4
A|----66666666-------------------------------|
E|-------------------------------------------|

Rest:(3:16)

Intro:(3:23)

Solo part:(3:31)

Rest:(4:12)

Intro:(4:16)

Solo part:(4:24)

That’s all there is to it, this is my first tab so be lenient with your comments 
and ratings, enjoy!



************************************

| \  Slide down
| ~  Vibrato

************************************

            
            
Suggest correction
Creating personal tab
Creating personal tab
You can edit any tab online and save it as your Personal.

You can edit, replace or remove any tab part or add personal notes – all changes will be seen only by you.

Personal tabs can be accessed anytime from any device, even offline.
Learn more »
comments
print report bad tab
2 comments total.
0 reply
BCarey2293 131 Jun 06, 2009 08:37 AM

I think the part on the a - string where you hit the open a then B I think it should be b then 4th fret (C#)...

0 reply
snoro113 10 Jun 09, 2013 12:59 PM

its half step down ;)

guest
You may want to rate the tab now too:
select rating
Wanna post a correction for this tab? Suggest correction