Oops, an error
Loading. Please wait.

Girls Who Play Guitars tab

version 2
version 2

Whole song

8,081 views 12 this week
2 commentsread comments
1 2 3 4 5
x 6
add to favorites
×
Save as Personal and add changes to this tab that will be seen only by you. Learn more ›
×
You can save this tab as Personal to edit and correct it or add notes. All changes will be seen only by you. Learn more »
launch autoscroll
font size
0
reset
how to read this tab
guitar tuner
backing track
0:00
0:00
edit
Autoscroll
slow
fast
+/-
esc
set tempo
stop
First tab, I noticed some deficiencies in the other posted guitar tab so here goes.

Tuning: E standard
Moderate distortion

Intro: let open low E string ring

Verse: "You've been/In the gaps"
|---------------------------------------------------------------|
|---------------------------------------------------------------|
|---------------------------------------------------------------|
|-----------------------9-11------------------------9-11---9-11-|
|--9-11---9-11---9-11---0-0----9-11---9-11---9-11---0-0----0-0--|
|--0-0----0-0----0-0-----------0-0----0-0----0-0----------------|


verse into Prechorus: "We used to talk about..."
from.....v there onward play as all 8th notes
|-------------------------------------------------------------------|
|-------------------------------------------------------------------|
|------------------------------------------------------------9-11---|
|-9-11---9-11-11-11-------------------------9-11-11-11-11-12--------|
|-0-0----0-0--0--0---9-11-11-11-11-12-12-12-0-0--0--0--0--0---------|
|--------------------0-0--0--0--0--0--0--0--------------------------|
                    (^ ---- repeat this segment 4 times  -----------| ^)

Chorus:
|---------------------------3-3--3-3----------------------------|
|--10-10-10-11-10-10-10-----5-5--3-3----------------------------|
|--10-10-10-10-10-10-10-----5-5--4-4----------------------------|
|--10-10-10-10-10-10-10-----5-5--5-5----------------------------|
|--8--8--8--8--8--8--8------3-3--5-5----------------------------|
|--------------------------------3-3----------------------------|

NOTE: For the chorus,
- on the first two iterations, play the chorus segment four times.
- for the third iteration, play it five times.


Bridge: "When you lie in your bed..."
(Play as constant eigth notes for the non-chord part)
|----------------------------------------------------------------|
|----------------------------------------------------------------|
|-------4-------4-------4-------4--------------6-------6-------6-|
|---4-4---4-------------------------(x4)---6-6---6---------------|
|-----------5-5---5-5-5---5-5-5---5----------------7-7---7-7-7---|
|----------------------------------------------------------------|

|---------------------------------------------------------------|
|--------------------12-12---7---12-12---10-10--10--------------|
|-------6------------13-13---8---12-12---11-11--11--------------|
|------------(x2)----14-14---9---12-12---12-12--12--(x4)--------|
|-7-7-7---7-----------------------------------------------------|
|---------------------------------------------------------------|


Outro is one iteration of the verse, plus four iterations of the prechorus, ending on 
low E string again.


Song Structure:

Verse
Prechorus
Verse
Prechorus
Chorus
Verse
Chorus
Bridge
Chorus
Outro

Thanks for reading, rate please.

            
            
Suggest correction
Creating personal tab
Creating personal tab
You can edit any tab online and save it as your Personal.

You can edit, replace or remove any tab part or add personal notes – all changes will be seen only by you.

Personal tabs can be accessed anytime from any device, even offline.
Learn more »
comments
print report bad tab
2 comments total.
0 reply
Franzypants 109 Jun 26, 2009 08:49 AM

Perfect! almost. I think you mistyped when writing down the "she goes out, she gets drunk" part. It should be moved up a string.

0 reply
CrazyYaz 725 Jul 03, 2009 01:02 AM

Sounds really good, was waiting for someone to tab this, much better than the other tab. 5*

guest
You may want to rate the tab now too:
select rating
Wanna post a correction for this tab? Suggest correction