Oops, an error
Loading. Please wait.

Via Del Campo chords

version 2
version 2

Whole song

Interactive

74,857 views 222 this week
1 commentread comment
1 2 3 4 5
x 40
add to favorites
×
Save as Personal and add changes to this tab that will be seen only by you. Learn more ›
×
You can save this tab as Personal to edit and correct it or add notes. All changes will be seen only by you. Learn more »
launch autoscroll
font size
0
reset
transpose
0
reset
simplify chords
display chords
guitar tuner
edit
Autoscroll
slow
fast
+/-
esc
set tempo
stop
Strumming
There is no strumming pattern for this song yet. and get +5 IQ
[Intro]

    Am       E7      C       Dm       Am      E7      Am      E7
e|-------|-------|-----0-|---0--1-|-0-----|-------|-------|---------|
B|---0-1-|-0-1-3-|-1-3---|-3------|---3-1-|-0-----|-------|---------|
G|-2-----|-------|-------|--------|-------|---2-1-|---1-2-|---------|
D|-------|-------|-------|------0-|-------|-------|-4-----|-2-3-0-2-|
A|-----0-|-------|-----3-|--------|-----0-|-------|-----0-|---------|
E|-------|-----3-|-------|--------|-------|-----0-|-------|---------|

    Am       E7      C       Dm       Am      E7      Am 
e|-------|-------|-----0-|---0--1-|-0-----|-------|-------|
B|---0-1-|-0-1-3-|-1-3---|-3------|---3-1-|-0-----|-------|
G|-2-----|-------|-------|--------|-------|---2-1-|---1-2-|   Am
D|-------|-------|-------|------0-|-------|-------|-4-----|
A|-----0-|-------|-----3-|--------|-----0-|-------|-----0-|
E|-------|-----3-|-------|--------|-------|-----0-|-------|


[Verse 1]
         Am         E7     Am                    
Via del Campo c'è una graziosa
           C        F      G
gli occhi grandi color di foglia
       C         F     C    Am
tutta notte sta sulla soglia
         Dm        E7    Am
vende a tutti la stessa rosa


[Refrain]
         
e|----0-1-0---|---0-1-0-|
B|----1-1-1---|---1-1-1-|
G|-2--------2-|-2-------| Am
D|------------|---------|
A|------------|---------|
E|------------|---------|


[Verse 2]
   Am         E7    Am
Via del Campo c'è una bambina,
        C        F      G
con le labbra color rugiada,
            C      F       C  Am
gli occhi grigi come la strada
         Dm     E7    Am
nascon fiori dove cammina.


[Verse 3]
        Cm          G7    Cm
Via del Campo c'è una puttana
            Eb      G#     Bb
gli occhi grandi color di foglia
       Eb         G#    Eb    Cm
se di amarla ti vien la voglia
        Fm       G7    Cm
basta prenderla per la mano


[Verse 4]
      Cm          G7      Cm
E ti sembra di andare lontano
         Eb       G#     Bb
lei ti guarda con un sorriso
        Eb          G#  Eb Cm
non credevi che il paradiso
       Fm          G7    Cm
fosse solo lì al primo piano


[Instrumental]

Cm    G7    Cm
Eb    G#    Bb
Eb    G#    Eb    Cm
Fm    G7    Cm


[Verse 5]
         Am       E7      Am
Via del Campo ci va un illuso
      C        F   G
a pregarla di maritare
     C       F       C  Am
a vederla salir le scale
         Dm          E7       Am
fino a quando il balcone è chiuso


[Refrain]
     
e|----0-1-0---|---0-1-0-|
B|----1-1-1---|---1-1-1-|
G|-2--------2-|-2-------| Am
D|------------|---------|
A|------------|---------|
E|------------|---------|


[Verse 6]
       Am       E7     Am
Ama e ridi se amor risponde
        C        F      G
piangi forte se non ti sente
        C         F      C   Am
dai diamanti non nasce niente
       Dm   E7        Am
dal letame nascono i fior
        C         F      C   Am
dai diamanti non nasce niente
       Dm   E7        Am
dal letame nascono i fior.


[Outro]

    Am       E7      C       Dm       Am      E7      Am      E7
e|-------|-------|-----0-|---0--1-|-0-----|-------|-------|---------|
B|---0-1-|-0-1-3-|-1-3---|-3------|---3-1-|-0-----|-------|---------|
G|-2-----|-------|-------|--------|-------|---2-1-|---1-2-|---------|
D|-------|-------|-------|------0-|-------|-------|-4-----|-2-3-0-2-|
A|-----0-|-------|-----3-|--------|-----0-|-------|-----0-|---------|
E|-------|-----3-|-------|--------|-------|-----0-|-------|---------|

    Am       E7      C       Dm       Am      E7      Am 
e|-------|-------|-----0-|---0--1-|-0-----|-------|-------|
B|---0-1-|-0-1-3-|-1-3---|-3------|---3-1-|-0-----|-------|
G|-2-----|-------|-------|--------|-------|---2-1-|---1-2-|   Am
D|-------|-------|-------|------0-|-------|-------|-4-----|
A|-----0-|-------|-----3-|--------|-----0-|-------|-----0-|
E|-------|-----3-|-------|--------|-------|-----0-|-------|

Suggest correction
Creating personal tab
Creating personal tab
You can edit any tab online and save it as your Personal.

You can edit, replace or remove any tab part or add personal notes – all changes will be seen only by you.

Personal tabs can be accessed anytime from any device, even offline.
Learn more »
comments
print report bad tab
1 comment total.
0 reply
fra29red 10 Feb 05, 2015 08:38 AM

grazie per la tab, comunque i primi accordi in realtà partono da un Gm e non da un Am (come poi è nell'originale, mentre si trovano molti adattamenti in Am) e da lì di seguito (E7 diventa D7, ecc...). ciao!

guest
You may want to rate the tab now too:
select rating
Wanna post a correction for this tab? Suggest correction