Oops, an error
Loading. Please wait.

Career Of Evil Bass Tab

1,134 views 6 this week
no commentswrite comment
1 2 3 4 5
please rate
add to favorites
launch autoscroll
font size
0
reset
guitar tuner
Tab Pro tools
  • play this tab
  • loop segment
  • change instrument
  • show fretboard
  • metronome
×
Best way to learn
"Career Of Evil"
Autoscroll
slow
fast
+/-
esc
set tempo
stop
Contributor
Difficulty
novice
Bass Tab: Career Of Evil - Blue Oyster Cult

Riff 1
   I plot your rubric scarab...
G------------------------------|
D---------------7-6---5--------|
A------3--3/5-------7---7-5-3--|
E--5--5------------------------|

Riff 2
   I choose to steal...
G-----------------------------------------------------------------|
D-----------------------------------------------2--2-2-2--2-0-----|
A------------------------5-5-5--------------------------------3-2-|
E--5-5--5-5--5-5--5-5-2-------------0-0-0-0-0-0-------------------|

Riff 3                      Riff 4
  Career of evil...         (after 3 of riff 3)
G------------------------||---------------------------|
D-------------4--5--6-7--||---------------------------|
A--------5---------------||--------5------------------|
E-5--5-5-----------------||-5--5-5------0-0-0-0-0-3-0-|

Riff 5                      Riff 6
  I like...                 (after 3 of riff 5)
G------------------------||-----------------------------|
D-------5-5-5-----5-5-5--||--------------------5-3------|
A------5-5-5-5---5-5-5-5-||-2-2-2-2-2-2-2-3/5------3-5--|
E-3-------------3--------||-----------------------------|

Riff 7

G----------------------------------|
D-7-7-7--7--7-5---------------5-6--|
A---------------7-5-5-5--5--5------|
E----------------------------------|

Riff 8              Riff 9
 (Part of riff 1)
G----------------||----------|
D-7-6---5--------||----------|
A-----7---7-5-3--||----------|
E----------------||-2-----5--|

Song structure

Intro
1 1 1 1

Verse
1 1 1 1
1 1 1 1

Refrain
2

Chorus
3 3 3 4

Instruments
1 1

Verse
1 1 1 1
1 1 1 1

Refrain
2

Chorus
3 3 3 3

Insruments
1 1

Interlude
5 5 5 6

Drum break

Verse
1 1 1 1
1 1 1 1

Refrain
2

Chorus
3 3 3 3
7 7 7 7

8 8 8 9
comments
We did not receive enough feedback on this tab! Please rate:
print report bad tab
1 2 3 4 5
I want to post or [tab]
guest
You may want to rate the tab now too:
select rating
Please do not post tabs as comments. Select "correction" instead!