Oops, an error
Loading. Please wait.

Serenade tab

version 2
version 2

Whole song

9,950 views 27 this week
4 commentsread comments
1 2 3 4 5
x 3
add to favorites
×
Save as Personal and add changes to this tab that will be seen only by you. Learn more ›
×
You can save this tab as Personal to edit and correct it or add notes. All changes will be seen only by you. Learn more »
launch autoscroll
font size
0
reset
how to read this tab
guitar tuner
edit
Autoscroll
slow
fast
+/-
esc
set tempo
stop
Tabbeb by : Kal Mamkegh
for requests send me an email or add me on MSN at : Kaladiga@live.com

Serenade is one of the nicest smoothest songs i've ever heard so i decided to learn how 
play i came here and looked at the tab and it was kinda hard for me to play it so i did 
quick edit to make it sound awesome and just like the original songs with basic easy chords :)

*this was based on Makarony previous version

Capo : 2nd fret (to sound just like the original)


INTRO (2x) Verse (4x): ("New world forming...") (also Chorus 2)
    Dm                          G            G
E--------1p0---|-------------|-------------|-------------|
B------3-----3-|-----3-----5-|-------0-----|-1p0-1p0-1p0-|
G----2---------|---2---------|-----0---0---|-0---0---0---|
D--0-----------|-------------|---0-------0-|-0---0---0---|
A--------------|-3-----------|-------------|-------------|
e--------------|-------------|-3-----------|-3---3---3---|

Chorus 1:("For the dark finds ways of being...")
(3x)
   C             Em            Am
E--------------|-------------|-------------|-3p0---------|
B--------1-----|-------0-----|-------1-----|-------------|
G------0-------|-----0-------|-----2-------|-------------|
D----2---------|---2---------|---2---------|-2---2-------|
A--3-----------|-------------|-0-----------|---------0-2-|
e--------------|-0-----------|-------------|-------------|

(2x) ("Of yesterdays hurting child...")
 Bb             Am             C
E--------0-----|-------------|-0-----------|-0-----------|
B--3-------3---|-1-------3---|-------1---1-|-1-----------|
G--3-----------|-2-----------|-----0---0---|-------------|
D--------------|-------------|---2---------|-------------|
A--1-----------|-0-----------|-3-----------|-3-----------|
e--------------|-------------|-------------|-------------|
                              (...night so...)
                              C              C
                             |-0-----------|-------------|
                             |-------1---1-|-------1-----|
                             |-----0---0---|-----0-------|
                             |---2---------|---2---------|
                             |-3-----------|-2-----------|
                             |-------------|-------------|

("Morning comes...")
  Am            Am            Am
E--------------|-------------|-------------|-0-----------|
B--------1-----|-------1-----|-------1-----|-----3---1---|
G------2-------|-----2-------|-----2-------|-------------|
D----2---------|---2---------|---2---------|-------------|
A--0-----------|-------------|-------------|-------------|
e--------------|-3-----------|-1-----------|-------------|

("On the cloud within the sky beneath the dawn...")

Bb              Bm            Am             Am
E--------------|-------------|-------------|-------------|
B--3-----------|-3-----------|-1---1-1-1-1-|-1---1-1-1-1-|
G--3-----------|-4-----------|-2---2-2-2-2-|-2---2-2-2-2-|
D--3-----------|-4-----------|-2---2-2-2-2-|-2---2-2-2-2-|
A--1-----------|-2-----------|-0---0-0-0-0-|-0---0-0-0-0-|
e--------------|-------------|-------------|-------------|

Enjoy this easy version of Serenade :)

            
            
Suggest correction
Creating personal tab
Creating personal tab
You can edit any tab online and save it as your Personal.

You can edit, replace or remove any tab part or add personal notes – all changes will be seen only by you.

Personal tabs can be accessed anytime from any device, even offline.
Learn more »
Give kudos to tab author, rate the tab!
1 2 3 4 5
comments
print report bad tab
4 comments total. Showing first comments.
0 reply
itsmadeline 118 Oct 28, 2009 12:53 AM

hey, thanks for this! i found the other tab too tiresome to master.
just one thing: the 5 in the second bar can just be played as an open high e, makes it much easier ;)

0 reply
Blue-toxic 455 Oct 28, 2009 08:58 AM

o yeah i know its just typing mistake

+1 reply
itsmadeline 118 Oct 31, 2009 01:17 AM

actually, when i listened to the song today, it sounds more like:

Dm
E--------1p0---|-------1p0---|
B------3-----3-|-----3-----3-|
G----2---------|---2---------|
D--0-----------|-------------|
A--------------|-3-----------|
e--------------|-------------|

guest
You may want to rate the tab now too:
select rating
Wanna post a correction for this tab? Suggest correction