Oops, an error
Loading. Please wait.

Volveré En Tus Ojos tab

version 1
version 1

Whole song

321 views 1 this week
no commentswrite comment
1 2 3 4 5
3 more votes to show rating
add to favorites
×
Save as Personal and add changes to this tab that will be seen only by you. Learn more ›
×
You can save this tab as Personal to edit and correct it or add notes. All changes will be seen only by you. Learn more »
launch autoscroll
font size
0
reset
how to read this tab
guitar tuner
edit
Autoscroll
slow
fast
+/-
esc
set tempo
stop
Author
Difficulty
-------------------------------------------------------------------------------
                           VOLVERÉ EN TUS OJOS - GARDELITOS
-------------------------------------------------------------------------------
Tabbed by: Francisco
Email: panchote_14  at  hotmail  dot  com

Tuning: STANDARD (EADGBe)

INTRO TAB: (E5-F#5–F#5–E5–F#5–F#5–A5–A5-A5-F#5) x4

e--------------------------------------------|----|
B-7-9-10-9-7------------------10-9-7---------|----|
G------------9~-7~--7-6-7-6-7--------6~-6~/0-|-x2-|
D--------------------------------------------|----|
A--------------------------------------------|----|
E--------------------------------------------|----|

e------------------------------------------------------|
B----------------------------7-------------------------|
G-6-----------------------6b---6r----------------------|
D---9b-9br p7---7-7-9-7-9---------9-7-7----------------|
A-------------9----------------------------------------|
E------------------------------------------------------|

e-------------------------------------------------------|
B-7-9-10-9-7-----------------10-9-7----------7-9-10-9-7-|
G------------9~-7~-7-6-7-6-7--------6~-6~/0-------------|
D-------------------------------------------------------|
A-------------------------------------------------------|
E-------------------------------------------------------|

e-------------------------------------/9~-9~--7-8b-8b--|
B-10/12-10--10-9-10-9-10-10/12--10-12------------------|
G------------------------------------------------------|
D------------------------------------------------------|
A------------------------------------------------------|
E------------------------------------------------------|

e-7------------------------12br-9----------------------|
B---10-9-7--10-10-12-10-12--------12-10-10/------------|
G------------------------------------------------------|
D------------------------------------------------------|
A------------------------------------------------------|
E------------------------------------------------------|

e---------------------------------------------|----|
B---------------------------------------------|----|
G-/9-9-9-9-9-9-----------/9-9-9---------------|-X2-|
D--------------11p9-11p9--------11--9----9-11-|----|
A-------------------------------------12------|----|
E---------------------------------------------|----|

e-------------------------------------------------------|
B-/9-9-9-9-9-9/10-10-9-10-9-10—10/12-10-9-9-------------|
G-------------------------------------------11-11-11-11-|
D-------------------------------------------------------|
A-------------------------------------------------------|
E-------------------------------------------------------|

e------------------------------------------------------|
B-/9-9-9-9-9-9/10-10-9-10-9-10-------10-9--------------|
G---------------------------------11------11-----------|
D------------------------------11----------------------|
A------------------------------------------------------|
E------------------------------------------------------|
| /  slide up
| \  slide down
| h  hammer-on
| p  pull-off
| ~  vibrato
| +  harmonic
| x  Mute note
===============================================================================

F#m               Bm    E               A
El dia que yo me muera no quiero ir al cielo
F#m               Bm    E             A
quiero quedarme cerca para ser tu consuelo.

Bm              A               E           F#m
Y con tu boca fresca, mi negra volvere a cantarte.
Bm              A                E          F#m
Y con tus ojos negros, mi negra volvere a mirarte.

F#m               Bm     E                A
No dejare que la lluvia vuelva a mojar tu cara.
F#m                 Bm     E               A
Volvere siempre en sueños siempre sere tu dueño.

Bm              A               E           F#m
Y con tu boca fresca, mi negra volvere a cantarte.
Bm              A                E          F#m
Y con tus ojos negros, mi negra volvere a mirarte.

(E – A) X4
Larailaila...

(E – A – Bm – A – F#m) X2

(W/DELAY)

e------------------------------------------------------|
B------------------------------------2--2-5-5/7--7-7-7-|
G-------1-1-2-2-2—2p1----2-2-2-4-4-4-------------------|
D-2h4-4----------------4-------------------------------|
A------------------------------------------------------|
E------------------------------------------------------|

e-5-4------------5-4-----------------5-----------------|
B-----5---5-7--7-----7--5---5-7--7-7---7---------------|
G-------6-----------------6----------------------------|
D------------------------------------------------------|
A------------------------------------------------------|
E------------------------------------------------------|

e-9-9-9-7-9--5-5-5-5-5--9-9-9-7-5-----2-|-----|
B-9-9-9-7-9--5-5-5-5-5--9-9-9-7-5-5/2-2-|-----|
G---------------------------------------|-X2--|
D---------------------------------------|-----|
A---------------------------------------|-----|
E---------------------------------------|-----|

e-----------|
B-----------|
G-----------|
D-6/7/9/11--|
A-----------|
E-4/5/7/9---|

e----------------------------------------|----|--------|
B-7-9-10-9-7-----------------10-9-7------|----|--------|
G------------9~-7~-7-6-7-6-7--------6~-6~|-X2-|--------|
D----------------------------------------|----|--------|
A----------------------------------------|----|--------|
E----------------------------------------|----|--------|

e----------------------------------------|----|--------|
B----------------------------7-----------|----|--------|
G-6-----------------------6b---6r--------|-X2-|--------|
D---9b-9br p7---7-7-9-7-9---------9-7----|----|--------|
A-------------9--------------------------|----|--------|
E----------------------------------------|----|--------|

Song repeats once more, and that's it :)


ORIGINAL TAB was published on LaCuerda.net.
I edited it since I couldn't read it with inverted strings.
Now I think this is way easier for everyone :)

EL TAB ORIGINAL se publicó en LaCuerda.net
Lo edité porque me costaba leerlo con las cuerdas invertidas.
Creo que así es mucho más facil para todos :)

            
            
Suggest correction
Creating personal tab
Creating personal tab
You can edit any tab online and save it as your Personal.

You can edit, replace or remove any tab part or add personal notes – all changes will be seen only by you.

Personal tabs can be accessed anytime from any device, even offline.
Learn more »
Give kudos to tab author, rate the tab!
1 2 3 4 5
comments
print report bad tab
guest
You may want to rate the tab now too:
select rating
Wanna post a correction for this tab? Suggest correction