Oops, an error
Loading. Please wait.

Nine tab

version 2
version 2

Whole song

Interactive

120 views 1 this week
no commentswrite comment
1 2 3 4 5
3 more votes to show rating
add to favorites
×
Save as Personal and add changes to this tab that will be seen only by you. Learn more ›
×
You can save this tab as Personal to edit and correct it or add notes. All changes will be seen only by you. Learn more »
launch autoscroll
font size
0
reset
how to read this tab
guitar tuner
edit
Autoscroll
slow
fast
+/-
esc
set tempo
stop
Author
e|--------------------------------------------------------------------------|
B|--------------------------------------------------------------------------|
G|----------------------------------6-6-6-6-6-6-6-6-6-6-6-6-6-6-6-6-6-6-6-6-|
D|----------------------------------7-7-7-7-7-7-7-7-7-7-7-7-7-7-7-7-7-7-7-7-|
A|--5-5-5-5-5-5-5-5-5-5-5-5-5-5-5-5-4-4-4-4-4-4-4-4-7-7-7-5-5-5-4-4-4-4-4-4-|
E|--------------------------------------------------------------------------| or just 
the first chord

e|--------------------------------------------------------------------------|
B|--------------------------------------------------------------------------|
G|-6-6-6-6-6-6-6-6-6-6-6-6-6-6-6-6-6-6-6------------------------------------|
D|-7-7-7-7-7-7-7-7-7-7-7-7-7-7-7-7-7-7-7------------------------------------|
A|-4-4-4-4-4-4-4-4-4-4-4-4-7-7-7-5-5-5-4------------------------------------|
E|--------------------------------------------------------------------------|

Verse: (according to the demo, but it's pretty much the same)

e|-----------------------------------------------------------------------------------------------|
B|-----------------------------------------------------------------------------------------------|
G|---7-7--7-7--7-7--7-7--6-6--6-6---9-9--7-7-11-11-11-11-11-11-11-11--9--9--7-7-44444444---------|
D|---7-7--7-7--7-7--7-7--6-6--6-6---9-9--7-7-11-11-11-11-11-11-11-11--9--9--7-7-44444444---------|
A|---5-5--5-5--5-5--5-5--4-4--4-4---7-7--5-5-9--9--9--9--9--9--9--9---7--7--5-5-66666666---------|
E|-----------------------------------------------------------------------------------------------|

Pre Chorus: ("But they can't distort our love agaaaaain)

e|----------------------------------------------------|
B|----------------------------------------------------|
G|-----------7-7------------2-2--------6--------------|
D|------9-------------4-------------7---7--7---7---6-7|
A|----------------------------------------------------|
E|--7-7--7-7------2-2---2-2------5-5--5---5--5---5----|   (x2)

e|----------------------------------|
B|----------------------------------|
G|----------------------------------|
D|----------------------------------|
A|----------------------------------|
E|--2-2-2-2-2-2-2-2-2-2-2-2-3-3-3-3-|

Chorus;

e|--10-(12 times)-10-(4times)-5-(12times)-5-(4times)---------------------|
B|--10------------10-----------5------------5----------------------------|
G|--11------------12-----------4------------7---------11-----12----11----|
D|--12------------12-----------7------------7-----------(x7)---(x4)--(x4)|
A|--12------------12-----------7------------7---------9------10----9-----|
E|--10------------10-----------5------------5----------------------------|


Crazy weird bit:

e|--------------------------------------------------------------------------|
B|----------10--7-----------------------7--10--7-10-10----------------------|
G|---7-------------10--8----------8--10-----------------7-7-----7-7---------|
D|-------9----------------10-9-10-----------------------7-7-9-9-7-7---------|
A|----------------------------------------------------------9-9-------------|
E|--------------------------------------------------------------------------|


e|------------------|
B|------------------|
G|--7-7------7-7----| Random timing make it up so it fits
D|--7-7-9-9--7-7----|
A|------9-9---------|
E|------------------|


e|-------------------------------------------|
B|-------------------------------------------|
G|----7---/10-10-(repeated alot)-------------|
D|----7---/10-10-----------------------------|
A|----5---/8--8------------------------------|
E|-------------------------------------------|


Chorus;

e|--10-(12 times)-10-(4times)-5-(12times)-5-(4times)---------------------|
B|--10------------10-----------5------------5----------------------------|
G|--11------------12-----------4------------7---------11-----12----11----|
D|--12------------12-----------7------------7-----------(x7)---(x4)--(x4)|
A|--12------------12-----------7------------7---------9------10----9-----|
E|--10------------10-----------5------------5----------------------------|

e|-------------------------------------------|
B|-------------------------------------------|
G|-----14--------11-----9-------7------------|
D|--------(x14)----(x7)---(x)7----(x21)------|
A|-----12--------9------7-------5------------|
E|-------------------------------------------|

e|-----------------------------------------------------------------------------------------------|
B|-----------------------------------------------------------------------------------------------|
G|---7-7--7-7--7-7--7-7--6-6--6-6---9-9--7-7-11-11-11-11-11-11-11-11--9--9--7-7-44444444---------|
D|---7-7--7-7--7-7--7-7--6-6--6-6---9-9--7-7-11-11-11-11-11-11-11-11--9--9--7-7-44444444---------|
A|---5-5--5-5--5-5--5-5--4-4--4-4---7-7--5-5-9--9--9--9--9--9--9--9---7--7--5-5-66666666---------|
E|-----------------------------------------------------------------------------------------------|

pm...................................

e|----------------------------------|
B|----------------------------------|
G|----------------------------------|
D|--4-4-4-4-4-4-4-4-4-4-4-4-5-5-5-5-|
A|--4-4-4-4-4-4-4-4-4-4-4-4-5-5-5-5-|
E|--2-2-2-2-2-2-2-2-2-2-2-2-3-3-3-3-|

e|------------------|
B|------------------|
G|--7-7------7-7----| Random timing make it up so it fits
D|--7-7-9-9--7-7----|
A|------9-9---------|
E|------------------|


e|--10-(12 times)-10-(4times)-5-(12times)-5-(4times)---------------------|
B|--10------------10-----------5------------5----------------------------|
G|--11------------12-----------4------------7---------11-----12----11----|
D|--12------------12-----------7------------7-----------(x7)---(x4)--(x4)|
A|--12------------12-----------7------------7---------9------10----9-----|
E|--10------------10-----------5------------5----------------------------|

e|-------------------------------------------|
B|-------------------------------------------|
G|-----14--------11-----9-------7------------|
D|--------(x14)----(x7)---(x)7----(x21)------|
A|-----12--------9------7-------5------------|
E|-------------------------------------------|

This is my version of Nine some of it is from another tab that I found on here this is 
first tab any corrections or anything that does n't sound right let me know I doubt its 100%

            
            
Suggest correction
Creating personal tab
Creating personal tab
You can edit any tab online and save it as your Personal.

You can edit, replace or remove any tab part or add personal notes – all changes will be seen only by you.

Personal tabs can be accessed anytime from any device, even offline.
Learn more »
Give kudos to tab author, rate the tab!
1 2 3 4 5
comments
print report bad tab
guest
You may want to rate the tab now too:
select rating
Wanna post a correction for this tab? Suggest correction