Oops, an error
Loading. Please wait.

Havent Met You Yet bass

version 1
version 1

Whole song

Interactive

14,819 views 1 this week
4 commentsread comments
1 2 3 4 5
1 last vote to show rating
add to favorites
×
Save as Personal and add changes to this tab that will be seen only by you. Learn more ›
×
You can save this tab as Personal to edit and correct it or add notes. All changes will be seen only by you. Learn more »
launch autoscroll
font size
0
reset
guitar tuner
edit
Autoscroll
slow
fast
+/-
esc
set tempo
stop
Author
Difficulty
---------------------------------------------------------------------
Havent met you yet Michael Buble
---------------------------------------------------------------------

Tabbed By : luke priest
e-mail: luke.priest@hotmail.com
Tuning:EADG
hey hope you like this, took me agez sorry if some bits are wrong, please let me kno 
you fink :)
Intro:
G|------------------------------------------------------------------|
D|---6/34--431-468-6641—6/34-431-468-6641---------------------------|
A|-4-------------------4--------------------------------------------|
E|------------------------------------------------------------------|
Verse 1:			    Chorus 1:*
G|------------------------------------------------------------------|
D|-----4---------------4---------------3-3-----6-363----3-3-4-4-6---|
A|-4-------6-------4-------6------46-6--4--6-6--6---6-6--4---4------|
E|-----------6-4646------------6-4--6-------6--------6--------------|

G|------------------------------------------------------------------|
D|------------------------------------------------------------------|
A|-6---4444-6--------6688991111999911//////-------------------------|
E|--644------6446666------------------------------------------------|
Verse 2:
G|------------------------------------------------------------------|
D|---6/34-431-468-6641-6/34-431-468-6641-6/34-431-468-663-----------|
A|-4------------------4-----------------4---------------------------|
E|------------------------------------------------------------------|
Chorus 2:
G|------------------------------------------------------------------|
D|-----3-3-----6-363---3-34-4-6-6h8p6h8-----------------------------|
A|-6-6--4--6-6--6---6-6-4--4----------------------------------------|
E|--6-------6--------6----------------------------------------------|

G|------------------------------------------------------------------|
D|------------------------------------------------------------------|
A|-6---4444-6--------6688991111999911///////------------------------|
E|--644------6446666------------------------------------------------|
Bridge 1:
G|-3—-32-21-1-------------------------------------------------------|
D|---3—-2--1—-5-3---------------------------------------------------|
A|----------------66668888999911-11-11-11---------------------------|
E|------------------------------------------------------------------|
Instrumental (key change):
G|------------------------------------------------------------------|
D|-66---358-66-------66---------------------------------------------|
A|-----6--------3568---22-33----------------------------------------|
E|---66-------66-------------66-4444-6666---------------------------|
Chorus 3:
G|------------------------------------------------------------------|
D|-----5-5-----8-585----5-56-6-8\\\\\\\-----------------------------|
A|-8-8--6--8-8--8----8-8-6--6---------------------------------------|
E|--8-------8---------8---------------------------------------------|
No bass until “I get and I get” Ending:
G|------------------------------------------------------------------|
D|-------------88888888---------------------------------------------|
A|-11-11-11-11-----------8---6666-8-------881010111113131111111113//|
E|------------------------866------8668888--------------------------|

*
G|-----68101310-----------------------------------------------------|
D|--856--------65368108863--856-653-68108863---865-653-68108863-----|
A|-6----------------------6------------------6-----------------6----|
E|------------------------------------------------------------------|

G|-----68101310-----------------------------------------------------|
D|--856--------653-68108863-----------------------------------------|
A|-6-----------------------6----------------------------------------|
E|------------------------------------------------------------------|
*not exactly the same as the song but still fits

| /  slide up
| \  slide down
| h  hammer-on
| p  pull-off
| ~  vibrato
| +  harmonic
| x  Mute note
=====================================================================

            
            
Suggest correction
Creating personal tab
Creating personal tab
You can edit any tab online and save it as your Personal.

You can edit, replace or remove any tab part or add personal notes – all changes will be seen only by you.

Personal tabs can be accessed anytime from any device, even offline.
Learn more »
Give kudos to tab author, rate the tab!
1 2 3 4 5
comments
print report bad tab
4 comments total. Showing first comments.
0 reply
georgeherby 78 Apr 21, 2010 07:26 AM

who ever said this is novice needs there head checking!!! is there an easy way of simplifying it cos it my fav song but it is a bit challenging!!!!!

0 reply
lukepp 184 Aug 29, 2011 02:50 AM

sorry i've only just seen your comment, i did practise this about 100 times before putting it on there so thats why i might have mucked up on the difficulty rating....

+1 reply
Andsome 82 Sep 21, 2011 05:28 AM

There are more notes in the chorus and instrumental (more walking) but this is really nice work.

I play this more or less the same as tabbed when my band does this song.

guest
You may want to rate the tab now too:
select rating
Wanna post a correction for this tab? Suggest correction