Oops, an error
Loading. Please wait.

Girls Girls Girls tab

version 2
version 2

Whole song

154,702 views 183 this week
11 commentsread comments
1 2 3 4 5
x 35
add to favorites
×
Save as Personal and add changes to this tab that will be seen only by you. Learn more ›
×
You can save this tab as Personal to edit and correct it or add notes. All changes will be seen only by you. Learn more »
launch autoscroll
font size
0
reset
how to read this tab
guitar tuner
backing track
0:00
0:00
edit
Autoscroll
slow
fast
+/-
esc
set tempo
stop
I figured ultimate-guitar needed a good tab
of girls girls girls so here it is!

Tuning - Full Step Down 
          D-G-C-F-A-D

[Intro]

D|--3~----3~----3~----3w------|
A|--3~----3~----3~----3w------|
F|--0~----0~----0~----0w------|
C|--0~----0~----0~----0w------|
G|----------------------------|
D|--3~----3~----3~----3w------|

D|-------------------------------------|
A|-----------------------5--------5----|
F|-----------------------4--------4----|
C|-----------------------2--------2----|
G|--5/7\5-----5\4----------------------|
D|--3/5\3--0--3\2--0--0-----0--0-------|

D|-----------------------------------------|
A|-----------------------------------------|
F|-----------------------2--------2--------|
C|--------------------2--2--------2--------|
G|--5/7\5-----5\4-----2-----3--4-----------|
D|--3/5\3--0--3\2--0-----------------3--4--|

D|-------------------------------------|
A|-----------------------5--------5----|
F|-----------------------4--------4----|
C|-----------------------2--------2----|
G|--5/7\5-----5\4----------------------|
D|--3/5\3--0--3\2--0--0-----0--0-------|

D|--------------------------------------------|
A|--------------------------------------------|
F|-----------------------2--------2-----------|
C|--------------------2--2--------2-----------|
G|--5/7\5-----5\4-----2-----3--4--------------|
D|--3/5\3--0--3\2--0-----------------0--3--4--|

D|------------------------------------------|
A|------------------------------------------|
F|------7-7~--------9-9~--------7-7~--------|
C|--2~--7-7~---2~---9-9~---2~---7-7~---2~---|
G|--0~---------0~----------0~----------0~---|
D|----------3-----------3-----------3-------|

D|------------------------|
A|------------------------|
F|--7\6--7\6--7\6--7\6----|
C|------------------------|
G|--5\4--5\4--5\4--5\4----|
D|------------------------|

D|-------------------------------------|
A|-----------------------5--------5----|
F|-----------------------4--------4----|
C|-----------------------2--------2----|
G|--5/7\5-----5\4----------------------|
D|--3/5\3--0--3\2--0--0-----0--0-------|

D|-----------------------------------------|
A|-----------------------------------------|
F|-----------------------2--------2--------|
C|--------------------2--2--------2--------|
G|--5/7\5-----5\4-----2-----3--4-----------|
D|--3/5\3--0--3\2--0-----------------3--4--|

D|------------------------------------|
A|------------------------------------|
F|----------------------2-------2-----|
C|--5/7\5-----5\4--2-2--2-------2-----|
G|--3/5\3--0--3\2--0-0-----0-0--------|
D|------------------------------------|

D|------------------------------------|
A|------------------------------------|
F|----------------------2--2--2-------|
C|--5/7\5-----5\4--2-2--2--2--2-------|
G|--3/5\3--0--3\2--0-0-----------0----|
D|------------------------------------|

D|-------------------------------------|
A|-----------------------5--------5----|
F|-----------------------4--------4----|
C|-----------------------2--------2----|
G|--5/7\5-----5\4----------------------|
D|--3/5\3--0--3\2--0--0-----0--0-------|

D|--------------------------------------------|
A|--------------------------------------------|
F|-----------------------2--------2-----------|
C|--------------------2--2--------2-----------|
G|--5/7\5-----5\4-----2-----3--4--------------|
D|--3/5\3--0--3\2--0-----------------0--3--4--|

D|------------------------------------------|
A|------------------------------------------|
F|------7-7~--------9-9~--------7-7~--------|
C|--2~--7-7~---2~---9-9~---2~---7-7~---2~---|
G|--0~---------0~----------0~----------0~---|
D|----------3-----------3-----------3-------|

D|------------------------|
A|------------------------|
F|--7\6--7\6--7\6--7\6----|
C|------------------------|
G|--5\4--5\4--5\4--5\4----|
D|------------------------|

D|-------------------------------------|
A|-----------------------5--------5----|
F|-----------------------4--------4----|
C|-----------------------2--------2----|
G|--5/7\5-----5\4----------------------|
D|--3/5\3--0--3\2--0--0-----0--0-------|

D|------------------------------------------|
A|------------------------------------------|
F|-----------------------2--------2---------|
C|--------------------2--2--------2---------|
G|--5/7\5-----5\4-----2-----3--4------------|
D|--3/5\3--0--3\2--0------------------3--4--|

D|------------------------------------|
A|------------------------------------|
F|----------------------2-------2-----|
C|--5/7\5-----5\4--2-2--2-------2-----|
G|--3/5\3--0--3\2--0-0-----0-0--------|
D|------------------------------------|

D|------------------------------------|
A|------------------------------------|
F|----------------------2--2--2-------|
C|--5/7\5-----5\4--2-2--2--2--2-------|
G|--3/5\3--0--3\2--0-0-----------0----|
D|------------------------------------|

D|-------------------------------------|
A|-----------------------5--------5----|
F|-----------------------4--------4----|
C|-----------------------2--------2----|
G|--5/7\5-----5\4----------------------|
D|--3/5\3--0--3\2--0--0-----0--0-------|

D|--------------------------------------------|
A|--------------------------------------------|
F|-----------------------2--------2-----------|
C|--------------------2--2--------2-----------|
G|--5/7\5-----5\4-----2-----3--4--------------|
D|--3/5\3--0--3\2--0-----------------3--4--0--|

D|-------------------------------------|
A|-------------------------------------|
F|-------------------------------------|
C|-------------------------------------|
G|--2--4---2--4--5---5--4---2--4--5----|
D|--0--0---0--0--0---0--0---0--0--0----|

D|-------------------------------------|
A|-------------------------------------|
F|-------------------------------------|
C|-------------------------------------|
G|--2--4---2--4--5---5--4---2--4-------|
D|--0--0---0--0--0---0--0---0--0-------|

D|-------------------------------------------------|
A|-------------------------------------------------|
F|------------------9--8-----9--8-----11~----------|
C|--9--11~--9--11~--------9--------9-------2-2-2---|
G|-----------------------------------------0-0-0---|
D|-------------------------------------------------|

D|-------------------------------------|
A|-------------------------------------|
F|-------------------------------------|
C|-------------------------------------|
G|--2--4---2--4--5---5--4---2--4--5----|
D|--0--0---0--0--0---0--0---0--0--0----|

D|-------------------------------------|
A|-------------------------------------|
F|-------------------------------------|
C|-------------------------------------|
G|--2--4---2--4--5---5--4---2--4-------|
D|--0--0---0--0--0---0--0---0--0-------|

D|-------------------------------------------------|
A|-------------------------------------------------|
F|------------------9--8-----9--8-----11~----------|
C|--9--11~--9--11~--------9--------9-------2-2-2---|
G|-----------------------------------------0-0-0---|
D|-------------------------------------------------|

D|-------------------------------------------|
A|-------------------------------------------|
F|-------------------------------------------|
C|--2--2---2--2--2---2--2---2--2--2--2--2----|
G|--2--2---2--2--2---2--2---2--2--2--2--2----|
D|--0--0---0--0--0---0--0---0--0--0--0--0----|


D|--3-3--3~---3~----3w----3w------|
A|--3-3--3~---3~----3w----3w------|
F|--0-0--0~---0~----0w----0w------|
C|--0-0--0~---0~----0w----0w------|
G|--------------------------------|
D|--3-3--3~---3~----3w----3w------|


D|-------------------------------------|
A|-----------------------5--------5----|
F|-----------------------4--------4----|
C|-----------------------2--------2----|
G|--5/7\5-----5\4----------------------|
D|--3/5\3--0--3\2--0--0-----0--0-------|

D|-----------------------------------------|
A|-----------------------------------------|
F|-----------------------2--------2--------|
C|--------------------2--2--------2--------|
G|--5/7\5-----5\4-----2-----3--4-----------|
D|--3/5\3--0--3\2--0-----------------3--4--|

D|-------------------------------------|
A|-----------------------5--------5----|
F|-----------------------4--------4----|
C|-----------------------2--------2----|
G|--5/7\5-----5\4----------------------|
D|--3/5\3--0--3\2--0--0-----0--0-------|

D|--------------------------------------------|
A|--------------------------------------------|
F|-----------------------2--------2-----------|
C|--------------------2--2--------2-----------|
G|--5/7\5-----5\4-----2-----3--4--------------|
D|--3/5\3--0--3\2--0-----------------0--3--4--|

D|------------------------------------------|
A|------------------------------------------|
F|------7-7~--------9-9~--------7-7~--------|
C|--2~--7-7~---2~---9-9~---2~---7-7~---2~---|
G|--0~---------0~----------0~----------0~---|
D|----------3-----------3-----------3-------|

D|------------------------|
A|------------------------|
F|--7\6--7\6--7\6--7\6----|
C|------------------------|
G|--5\4--5\4--5\4--5\4----|
D|------------------------|

D|-------------------------------------|
A|-----------------------5--------5----|
F|-----------------------4--------4----|
C|-----------------------2--------2----|
G|--5/7\5-----5\4----------------------|
D|--3/5\3--0--3\2--0--0-----0--0-------|

D|-----------------------------------------|
A|-----------------------------------------|
F|-----------------------2--------2--------|
C|--------------------2--2--------2--------|
G|--5/7\5-----5\4-----2-----3--4-----------|
D|--3/5\3--0--3\2--0-----------------3--4--|

D|------------------------------------|
A|------------------------------------|
F|----------------------2-------2-----|
C|--5/7\5-----5\4--2-2--2-------2-----|
G|--3/5\3--0--3\2--0-0-----0-0--------|
D|------------------------------------|

D|------------------------------------|
A|------------------------------------|
F|----------------------2--2--2-------|
C|--5/7\5-----5\4--2-2--2--2--2-------|
G|--3/5\3--0--3\2--0-0-----------0----|
D|------------------------------------|

D|---------------------------------------|---------|
A|---------------------------------------|---------|
F|---------------------------------------|---------|
C|---------------------------------------|---- x 4-|
G|--5/7\5-----5\4--2-2--4--2--2--4--2----|---------|
D|--3/5\3--0--3\2--0-0--0--0--0--0--0----|---------|

This is the end solo
rhythm is under this.

D|------------------------------12---------|
A|--15~---15b---15~---15~---15b----13------|
F|--------14b---------14~---14b-------14---|
C|-----------------------------------------|
G|-----------------------------------------|
D|-----------------------------------------|

D|----------------------------5--------------------|
A|--8~---8~--8b------8~---8b----8-5-8-5-5-5--15b---|
F|-------7~--7b--5--------7b-----------------------|
C|-------------------------------------------------|
G|-------------------------------------------------|
D|-------------------------------------------------|

D|----------------------------------------------------------|
A|--15b--15b--15--15b--15b--15--15b--15b--15b--15--15b--15--|
F|--14b--14b------14b--14b------14b--14b--14b------14b------|
C|----------------------------------------------------------|
G|----------------------------------------------------------|
D|----------------------------------------------------------|

D|------------------------------------------------------------|
A|------15b--12-15-12-15-12-15-12-15-12-15-12-15-12-15-12-15--|
F|--12--------------------------------------------------------|
C|------------------------------------------------------------|
G|------------------------------------------------------------|
D|------------------------------------------------------------|

D|---------------12-14--15-12-14-15-12-14-15-12-14-15-12-14---|
A|--12-15-12-15-----------------------------------------------|
F|------------------------------------------------------------|
C|------------------------------------------------------------|
G|------------------------------------------------------------|
D|------------------------------------------------------------|

D|--15-12-14-15-12-14-13-12-14-13-12-12---24b-24b-24b---|
A|------------------------------------------------------|
F|------------------------------------------------------|
C|------------------------------------------------------|
G|------------------------------------------------------|
D|------------------------------------------------------|

D|--24b-24b-24b--24b-22b-24b-22b-24b--|
A|------------------------------------|
F|------------------------------------|
C|------------------------------------|
G|------------------------------------|
D|------------------------------------|

D|------------------------------------------------|
A|------------------------------------------------|
F|--12-12-12-12\11-9---12-12-12-12--12--11--9-----|
C|--12-12-12-12\11-9---12-12-12-12--12--11--9-----|
G|------------------------------------------------|
D|------------------------------------------------|


D|-------------------------------------------|
A|-------------------------------------------|
F|--12-12-12-12-12\11--12-12-12-12-12\11-----|
C|--12-12-12-12-12\11--12-12-12-12-12\11-----|
G|-------------------------------------------|
D|-------------------------------------------|

D|-------------------------------------------|
A|-------------------------------------------|
F|--12-12-12-12-12\11--9--12-12-12-12\11--9--|
C|--12-12-12-12-12\11--9--12-12-12-12\11--9--|
G|-------------------------------------------|
D|-------------------------------------------|


[Outro]

D|-------------------------------------------|
A|-------------------------------------------|
F|--12-12-12\11--9--12/14\12-----------------|
C|--12-12-12\11--9--12/14\12-----------------|
G|-------------------------------5\4--2-2----|
D|----------------------------0--3\2--0-0----|


[Rhythm]

D|-------------------------------------|-----|
A|-------------------------------------|-----|
F|-------------------------------------|-----|
C|--5/7\5---5\4--2-2-2--2-2-2--2-2-----|-----| x2
G|--3/5\3-0-3\2--0-0-0--0-0-0--0-0-----|-----|
D|-------------------------------------|-----|

D|--------------------------------|-----|
A|--------------------------------|-----|
F|--------------------------------|-----|
C|--------------------------------|-----| x4
G|--5/7\5---5\4---2--2--4--2------|-----|
D|--3/5\3-0-3\2---0--0--0--0------|-----|

D|-------------------------------------------|-----|
A|-------------------------------------------|-----|
F|-------------------------------------------|-----|
C|-------------------------------------------|-----| x2
G|--2-2--2--2-2--2--2--2--2-2-2--2--2--2-----|-----|
D|--0-0--0--0-0--0--0--0--0-0-0--0--0--0-----|-----|


[Outro]

D|------------------------------|
A|------------------------------|
F|------------------------------|
C|------------------------------|
G|--4--2--5/7\5-----5\4--2--2~--|
D|--0--0--3/5\3--0--3\2--0--0~--|

[Outro Solo]
                                                                                                     Let Ring

D|--22b----22b-22-21-19p17--19p15--17p14--15p12--15p12p10--12-10-9--10p9--7h9--7p5--7p5--4h5--4-2-3-4--------|
A|------------------------------------------------------------------------------------------------------5~~--|
F|-----------------------------------------------------------------------------------------------------------|
C|-----------------------------------------------------------------------------------------------------------|
G|-----------------------------------------------------------------------------------------------------------|
D|-----------------------------------------------------------------------------------------------------------|

********************************

~ - let ring
b - bend note
/ - slide
x - times played
w - whammy bar

********************************

                  thanks for checking out my tab
                   hope you enjoyed it please
                       rate and comment.

            
            
Suggest correction
Creating personal tab
Creating personal tab
You can edit any tab online and save it as your Personal.

You can edit, replace or remove any tab part or add personal notes – all changes will be seen only by you.

Personal tabs can be accessed anytime from any device, even offline.
Learn more »
comments
print report bad tab
11 comments total. Showing first comments.
0 reply
anttii 212 Feb 05, 2010 12:38 AM

Awesome! About time someone posted 5-star worthy tab of Girls Girls Girls!

0 reply
wild577mxracer 832 Feb 05, 2010 03:53 AM

Thanks.Glad you enjoyed it.

+4 reply
80smetalfreke 735 Mar 01, 2010 09:20 AM

dude you deserve a lap dance from the gender of your choice for this one awesome tab 5 stars much better than the tab i tried to post a while back

guest
You may want to rate the tab now too:
select rating
Wanna post a correction for this tab? Suggest correction