Oops, an error
Loading. Please wait.

Gay Rude Boys Unite bass

version 2
version 2

Whole song

Interactive

513 views 1 this week
no commentswrite comment
1 2 3 4 5
3 more votes to show rating
add to favorites
×
Save as Personal and add changes to this tab that will be seen only by you. Learn more ›
×
You can save this tab as Personal to edit and correct it or add notes. All changes will be seen only by you. Learn more »
launch autoscroll
font size
0
reset
guitar tuner
edit
Autoscroll
slow
fast
+/-
esc
set tempo
stop
Author
Difficulty
Simple song, once you get the riffs down, and one of the best CRS7 songs ever written. 
sure there's some room to improvise too, especially on the post-chorus.

Intro (x8)
G|-------------------------------|
D|-------------------------------|
A|-----2-2-4-4---0-0-4-4-2-2-4-4-|
E|-0-0---------4-----------------|

Verse (variation on main riff) (x4)
G|-----------------|
D|-----------------|
A|---2-4---0-4-2-4-|
E|-0-----4---------|

Chorus (x2)
G|-----------------------------|------------------------------|
D|---------------666-6-999-7p6-|---------------666-66---------|
A|-444-44-777-77---------------|-444-44-777-77--------999-7p6-|
E|-----------------------------|------------------------------|

Post-Chorus (x2)(*Take-It-Back!)
G|-------------------|----------------|
D|-------------*-*-*-|----------------|
A|-444-444-444-6h7p6-|-0-0-0-0-222222-|
E|-------------------|----------------|

Bridge
G|---|---|-----|--------------|
D|---|---|-----|--------------|
A|---|---|-----|--------------|
E|-0-|-0-|-0-0-|-0000-2222222-|

I like to end it on A|-7-|, an octave higher.

            
            
Suggest correction
Creating personal tab
Creating personal tab
You can edit any tab online and save it as your Personal.

You can edit, replace or remove any tab part or add personal notes – all changes will be seen only by you.

Personal tabs can be accessed anytime from any device, even offline.
Learn more »
Give kudos to tab author, rate the tab!
1 2 3 4 5
comments
print report bad tab
guest
You may want to rate the tab now too:
select rating
Wanna post a correction for this tab? Suggest correction