Oops, an error
Loading. Please wait.

Comptine D Un Autre Été - L Après Midi Tab

version 3
version 3
93,090 views 36 this week
19 commentsread comments
1 2 3 4 5
x 29
add to favorites
launch autoscroll
font size
0
reset
how to read this tab
guitar tuner
×
Best way to learn
"Comptine D Un Autre été - L Après Midi"
Autoscroll
slow
fast
+/-
esc
set tempo
stop
Rythm guitar: 

E||-0----0----0----0---|--------------------|
H||---0----0----0----0-|-3----3----3----3---|
G||------0---------0---|---4----4----4----4-|
D||-2---------2--------|-0----5----0----5---|
A||--------------------|--------------------|
E||--------------------|--------------------|

E||--------------------|--------------------|
H||-3----3----3----3---|-3----3----3----3---|
G||---4----4----4----4-|---2----2----2----2-|
D||-0----4----0----4---|-0----4----0----4---|
A||--------------------|--------------------|
E||--------------------|--------------------|

Solo guitar:

E||------------|------------|------------|------
H||------0/1/0-|------------|------0/1/0-|------
G||------------|------0h2-0-|------------|------
D||-5/4/5------|-4/5/4------|-4/2/4------|-4/2/4
A||------------|------------|------------|------
H||------------|------------|------------|------

E||-0--|-----2---|-2---|-3-0-|-3---|-2---|-2---|
H||--0-|-3-0—--0-|-----|-0---|-0-3-|-0-3-|---3-|
G||----|---------|---2-|---0-|---0-|---4-|-2-4-|
D||----|---------|-----|-----|-----|-----|-----|
A||----|---------|-----|-----|-----|-----|-----|
E||----|---------|-----|-----|-----|-----|-----|

E||---7---7---7---7---------|---7---7---7---7----------|
H||--5---5---5---5----5—--5-|--------------------------|
G||-4---4---4---4---4-—-5---|--7---7---7---7----7---7--|
D||-------------------------|-9---9---9---9---9---7----|
A||-------------------------|--------------------------|
E||-------------------------|--------------------------|

E||---2---2---2---2---------|---5---5---5---5---------|
H||--0---0---0---0----0---0-|--3---3---3---3----3—--3-|
G||---------------------0---|-2---2---2---2---2-—-3---|
D||-4---4---4---4---4-------|-------------------------|
A||-------------------------|-------------------------|
E||-------------------------|-------------------------|

E||---7---7---7---7---------|---7---7---7---7----------|
H||--5---5---5---5----5—--5-|--------------------------|
G||-4---4---4---4---4-—-5---|--7---7---7---7----7---7--|
D||-------------------------|-9---9---9---9---9---7----|
A||-------------------------|--------------------------|
E||-------------------------|--------------------------|

E||---2---2---2---2---------|---5---5---5---5---5--|
H||--0---0---0---0----0---0-|--3---3---3---3---3—--|
G||---------------------0---|-2---2---2---2---2-—--|
D||-4---4---4---4---4-------|----------------------|
A||-------------------------|----------------------|
E||-------------------------|----------------------|

E||------7/8/7-|------3/5/3-|------7/8/7-|------
H||-8/7/8------|-7/8/7------|-7/5/7------|-7/5/7
G||------------|------------|------------|------
D||------------|------------|------------|------
A||------------|------------|------------|------
E||------------|------------|------------|------
Suggest correction
comments
print report bad tab
19 comments total. Showing first comments.
0 reply
Harmonius 386 Sep 01, 2005 08:00 PM

Awesome tab. Amelie is my favourite film in the world.

+1 reply
apollo66 10 Aug 14, 2006 04:28 PM

This is a good starting place but I believe that part of the solo guitar is down a string in your tab and it shouldn't be...here's what I worked out using your tab as a guide

Solo guitar:

E||--------------|------------|--------------|------
B||-------|------|------------|--------------|------
G||-------4/5/4--|------0h2-0-|-------4/5/4--|------
D||-5/4/5--------|-4/5/4------|-4/2/4--------|-4/2/4
A||--------------|------------|--------------|------
H||--------------|------------|--------------|------

E||-0--|-----2---|-2---|-3-0-|-3---|-2---|-2---|
B||--0-|-3-0---0-|-----|-0---|-0-3-|-0-3-|---3-|
G||----|---------|---2-|---0-|---0-|---4-|-2-4-|
D||----|---------|-----|-----|-----|-----|-----|
A||----|---------|-----|-----|-----|-----|-----|
E||----|---------|-----|-----|-----|-----|-----|

E||---7--7--7----------|---7--7--7-----------|
B||--5--5--5----5---5--|--3--3--3-----3---3--|
G||-4--4--4---4---5----|-4--4--4----4---2----|
D||--------------------|---------------------|
A||--------------------|---------------------|
E||--------------------|---------------------|
%
E||---2---2---2--------|---5--5--5-----|*|---------|*|
B||--------------------|--3--3--3------||---3---3--||
G||--4---4---4---4-4---|-2--2--2-------||-2--?-----|| *-Play 1st time only
D||-4---4---4---4-5----|---------------||--?---5---||
A||--------------------|---------------||----------||
E||--------------------|---------------||----------||

I switched some of the open strings around because it sounded better to me but it's a bit of a reach for some people so feel free to change them if you want...I'm not too sure about some of the parts around where I put the % sign in...I used to have that part figured out for piano but I've forgotten it, hopefully sitting down at the piano for the first time in a year will jump-start my memory and I can fix that if it's off a little

but great job with the tab

0 reply
rayo75 71 Mar 27, 2007 04:49 AM

i dont get the tunning. EADGBe (ok, standard) but what is H?

guest
You may want to rate the tab now too:
select rating
Wanna post a correction for this tab? Suggest correction