Oops, an error
Loading. Please wait.

After Dark Bass Tab

version 2
version 2

Whole song

1,033 views 3 this week
no commentswrite comment
1 2 3 4 5
please rate
add to favorites
launch autoscroll
font size
0
reset
guitar tuner
Tab Pro tools
  • play this tab
  • loop segment
  • change instrument
  • show fretboard
  • metronome
×
Best way to learn
"After Dark"
Autoscroll
slow
fast
+/-
esc
set tempo
stop
Contributor
Difficulty
intermediate
------------------------------------------------------------------
			     After Dark - Blue Oyster Cult
------------------------------------------------------------------

Tabbed By : Billy M edited by JayJayWray
Song: After Dark
Band: Blue Öyster Cult
Album: Fire of Unknown Origin

Tuning: Standard


Intro:
G|-----------------------------------------------------------------------|
D|-----------------------------------------------------------------------|
A|--44444444444444320000000000000032-X4----------------------------------|
E|-----------------------------------------------------------------------|

Verse:
G|-----------------------------------------------------------------------|
D|-----------------------------------------------------------------------|
A|--44444444444444320000000000000032-X2----------------------------------|
E|-----------------------------------------------------------------------|

G|-----------------------------------------------------------------------|
D|-----------------------------------------------------------------------|
A|--2222---2222----------------2222---2222-------------------------------|
E|---------------3333---3333----------------3333---3333------------------|

Pre-Chorus: (x4)
G|-----------------------------------------------------------------------|
D|-----------------------------------------------------------------------|
A|---------3---2-0-------------------------------------------------------|
E|--0---2-3-------5---7-8--0-0-2-3-2-------------------------------------|

Chorus: (x4)
G|-----------------------------------------------------------------------|
D|------------------0----------------------------------------------------|
A|----------------2----2-3-2-0-------------------------------------------|
E|--0-0-2-3---3-3--------------3-2-1-0-----------------------------------|

Verse 2:
G|-----------------------------------------------------------------------|
D|-----------------------------------------------------------------------|
A|--44x444x44x444---------------44x444x44x444----------------------------|
E|----------------55x555x55x555---------------55x555x55x555--------------|

G|-----------------------------------------------------------------------|
D|-----------------------------------------------------------------------|
A|--2222---2222-----------------2222---2222------------------------------|
E|----------------3333---3333-----------------3333---3333----------------|

Pre-Chorus (x4)
Chorus (x4)

Guitar Solo: I don't know if this is quite accurate. It is hard to tell. Where there are 
notes on top of each other(0 on A, 5 on E) You can play whichever is easier for you. It 
no different.
G|-----------------------------------------------------------------------|
D|-----------------------------------------------5-4------5-4------------|
A|-44-0-4-00-4-0-445-00---0----00-2---------55-4-----55-4-----5-4--------|
E|----5---55---5-----55-3-5-33-55--3-2-0---------------------------------|

G|-------------------------------4444--4444--4444--4-5-4-5---------------|
D|--5-3-0--5-3-0--5-3-0--5-3-0-----------------------------5-4-----------|
A|-------------------------------------------------------------5-4-------|
E|-----------------------------------------------------------------------|

Chorus (x2) Note: Guitar solo is still going

G|-----------------------------------------------------------------------|
D|-----------------------------------------------------------------------|
A|--44x444x44x444---------------44x444x44x444----------------------------|
E|----------------55x555x55x555---------------55x555x55x555--------------|

G|-----------------------------------------------------------------------|
D|-----------------------------------------------------------------------|
A|--2222---2222-----------------2222---2222------------------------------|
E|----------------3333---3333-----------------3333---3333----------------|

Pre-Chorus (x4)
Chorus (x4)

Ending:
G|-----------------------------------------------------------------------|
D|-----------------------------------------------------------------------|
A|--2-3-2-3---------2-3-2-3--------2-3-2-3-------------------------------|
E|----------3-2-1-0--------3-2-1-0--------3-2-1-0---Fill---0~--------0---|

==========================================================================
comments
We did not receive enough feedback on this tab! Please rate:
print report bad tab
1 2 3 4 5
I want to post or [tab]
guest
You may want to rate the tab now too:
select rating
Please do not post tabs as comments. Select "correction" instead!