Oops, an error
Loading. Please wait.

Fallen Angel Tab

525 views 9 this week
no commentswrite comment
1 2 3 4 5
please rate
add to favorites
launch autoscroll
font size
0
reset
how to read this tab
guitar tuner
Tab Pro tools
  • play this tab
  • loop segment
  • change instrument
  • show fretboard
  • metronome
×
Best way to learn
"Fallen Angel"
Autoscroll
slow
fast
+/-
esc
set tempo
stop
Contributor
Difficulty
intermediate
Fallen Angel
Blue Oyster Cult
-----------------
This is everything but the second guitar solo... Here you go!


E|----------------|----------------|----------------|----------------|
B|----------------|----------------|--12--12--12--12|--12--12--12--12|
G|9---7---9---7-4-|9---7---9---7-4-|----------------|----------------|
D|9---7---9---7-4-|9---7---9---7-4-|9---9---9---9---|9---9---9---9---|
A|----------------|----------------|----------------|----------------|
E|----------------|----------------|----------------|----------------


     x   x   x        x   x   x                x
E|----------------|----------------|----------------|----------------|
B|----------------|----------------|------------9-8-|----------------|
G|9---7---9---7-4-|9---7---9---7-4-|---9----9---9-8-|----------------|
D|9---7---9---7-4-|9---7---9---7-4-|6-9-7--9-9-9----|9-9-9-9-9-------|
A|---5---7---5----|---5---7---5----|----------------|9-9-9-9-9-------|
E|----------------|----------------|----------------|7-7-7-7-7-------|


     x   x   x        x   x   x                x
E|----------------|----------------|----------------|----------------|
B|----------------|----------------|------------9-8-|----------------|
G|9---7---9---7-4-|9---7---9---7-4-|---9----9---9-8-|----------------|
D|9---7---9---7-4-|9---7---9---7-4-|6-9-7--9-9-9----|9-9-9-9-9-------|
A|---5---7---5----|---5---7---5----|----------------|9-9-9-9-9-------|
E|----------------|----------------|----------------|7-7-7-7-7-------|


     x   x   x        x   x   x                x
E|----------------|----------------|----------------|----------------|
B|----------------|----------------|------------9-8-|----------------|
G|9---7---9---7-4-|9---7---9---7-4-|---9----9---9-8-|----------------|
D|9---7---9---7-4-|9---7---9---7-4-|6-9-7--9-9-9----|9-9-9-9-9-------|
A|---5---7---5----|---5---7---5----|----------------|9-9-9-9-9-------|
E|----------------|----------------|----------------|7-7-7-7-7-------|


             x
E|----------------|----------------|----------------|----------------|
B|------------9-8-|----------------|--12--12--12--12|--12--12--12--12|
G|---9----9---9-8-|----------------|----------------|----------------|
D|6-9-7--9-9-9----|9-9-9-9-9-------|9---9---9---9---|9---9---9---9---|
A|----------------|9-9-9-9-9-------|----------------|----------------|
E|----------------|7-7-7-7-7-------|----------------|----------------|


                                 
E|----------------|----------------|
B|--14--14--14--14|--14--14--14----|
G|----------------|----------------|
D|11--11--11--11--|11--11--11--11~-|
A|----------------|----------------|
E|----------------|----------------|

GUITAR SOLO:------------------------------------------------------------------------
                 b          b
E|----------------|----------------|----16h17-16-17-|16-19-17-16-----|
B|21\12-----------|---15-14--------|--17------------|----------------|
G|21\12---16-14-16|--------17---14-|13--------------|----------------|
D|21\12-14--------|-14--------14---|----------------|----------------|
A|----------------|----------------|----------------|----------------|
E|----------------|----------------|----------------|----------------|



                                     b  b  b
E|16h17h19--------|----------------|----------------|----------------|
B|--------17~-----|-----17h19---17-|19-19-19--17-19-|17h19p17------17|
G|----------------|16h18----h18----|----------------|--------18h16---|
D|----------------|----------------|----------------|----------------|
A|----------------|----------------|----------------|----------------|
E|----------------|----------------|----------------|----------------|



                           b
E|----------------|----------------|----------------|----------------|
B|15--------------|-12-14-14-14-12-|-10h12p10--12-12|-19-19-19-19-19-|
G|-------11h12h13-|----------------|---------11-----|----------------|
D|--14-14---------|----------------|----------------|----------------|
A|----------------|----------------|----------------|----------------|
E|----------------|----------------|----------------|----------------|


                b           b
E|----------------|----------------|----------------|----------------|
B|-17-------19----|------17--------|----------------|----------------|
G|----18p16----21-|18p16---19-16p14|----------------|----------------|
D|----------------|----------------|----------------|----------------|
A|----------------|----------------|-14-------------|----------------|
E|----------------|----------------|----------------|----------------|

-----------------------------------------------------------------------------
     x   x   x        x   x   x                x
E|----------------|----------------|----------------|----------------|
B|----------------|----------------|----------------|----------------|
G|9---7---9---7-4-|9---7---9---7-4-|---9----9-------|9---7---9-------|
D|9---7---9---7-4-|9---7---9---7-4-|6-9-7--9--------|9---7---9-------|
A|---5---7---5----|---5---7---5----|----------------|----------------|
E|----------------|----------------|----------------|----------------|


************************************

| /   slide up
| \   slide down
| h   hammer-on
| p   pull-off
| ~   vibrato
| +   harmonic
| x   Mute note
| b   Bend
| pb  Pre-bend
| br  Bend release
| pbr Pre-bend release
| brb Bend release bend

************************************
comments
We did not receive enough feedback on this tab! Please rate:
print report bad tab
1 2 3 4 5
I want to post or [tab]
guest
You may want to rate the tab now too:
select rating
Please do not post tabs as comments. Select "correction" instead!