Oops, an error
Loading. Please wait.

Labios Compartidos bass

version 1
version 1

Whole song

by Maná
11,524 views 9 this week
no commentswrite comment
1 2 3 4 5
2 more votes to show rating
add to favorites
×
Save as Personal and add changes to this tab that will be seen only by you. Learn more ›
×
You can save this tab as Personal to edit and correct it or add notes. All changes will be seen only by you. Learn more »
launch autoscroll
font size
0
reset
guitar tuner
edit
Autoscroll
slow
fast
+/-
esc
set tempo
stop
Author
Difficulty
By:elGranMatrako
This is my first Tab

Intro (0:25 sec)

G|--------------15h17p15~-|
D|------------17----------|
A|--/15~--15-18-----------|
E|------------------------|

*Now You Must Listen To The Song To Get The Rhythm, and get the feeling of the 
song, these are just the base notes* 
=============================================================================

Verse
G|----------------------------|-----------------------------|
D|----------------------------|-----------------------------|
A|-3-3-33--6-666--------------|3-3-33--6-666----------------|  x2
E|---------------6-6-66--4-444|--------------6-6-66--1-111--|


Pre-Chorus
G|-----------------------------------|
D|-----------------------------------|
A|-------------------66666666--------| 
E|-33333333-44444444----------6666666|
     Optional for last line
G|---------------------------------------------|
D|---------------------------------------------|
A|-------------------66666666------------------|
E|-33333333-44444444----------1818181818181818\| those are 18s


Chorus
G|-------------------------------------|    |-------------------------|
D|-------------------------------------|    |-------------------------|
A|--------------------6-6-6666--3-3-333| x3 |-------------------------|
E|-4-4-4444--6-6-6666------------------|    |4-4-4444--6-6-66666666666|


Pre-Verse
G|--------------------------|    |----------3h5p3~---3-|
D|--------------------------|    |--------5------------|
A|3-3-33--6-666-------------| or |-3~-3-6--------------|
E|--------------66666666--4~|    |---------------------|

Verse x2

Pre-Chorus                                              *not so sure here*
G|-----------------------------------|-------------------------------------|
D|-----------------------------------|-------------------------------------|
A|-------------------66666666--------|----------------------------11111111-|
E|-33333333-44444444----------6666666|-33333333-44444444-88888888----------|

Chorus x2

Interlude 
G|------|                  
D|------| 
A|-3~---|                 
E|------|    

In 3:53 do this
G|-------------15h17p15~--|--------------|
D|------------17----------|-101010101010-|
A|--/15~--15-18-----------|--------------|
E|------------------------|--------------|    

In 4:00 you can just do the verse or this
G|----------------------------------------------------|
D|-10-10-1010--13-131313------------------------------|
A|------------------------13-13-1313--11-11-11*11*11*-|    
E|----------------------------------------------------|
                                                           X4
 |--------------------------------------------|
 |-10-10-1010--13-131313----------------------|
 |------------------------13-13-1313--8-8-888-|    
 |--------------------------------------------|

And End in 
G|-----|
D|-10~-|
A|-----|
E|-----|

            
            
Suggest correction
Creating personal tab
Creating personal tab
You can edit any tab online and save it as your Personal.

You can edit, replace or remove any tab part or add personal notes – all changes will be seen only by you.

Personal tabs can be accessed anytime from any device, even offline.
Learn more »
Give kudos to tab author, rate the tab!
1 2 3 4 5
comments
print report bad tab
guest
You may want to rate the tab now too:
select rating
Wanna post a correction for this tab? Suggest correction