Oops, an error
Loading. Please wait.

Pocket chords

489 views 3 this week
1 commentread comment
1 2 3 4 5
2 more votes to show rating
add to favorites
×
Save as Personal and add changes to this tab that will be seen only by you. Learn more ›
×
You can save this tab as Personal to edit and correct it or add notes. All changes will be seen only by you. Learn more »
launch autoscroll
font size
0
reset
transpose
0
reset
display chords
guitar tuner
edit
Autoscroll
slow
fast
+/-
esc
set tempo
stop
Author
Strumming
There is no strumming pattern for this song yet. and get +5 IQ
-------------------------------------------------------------------------------
			     POCKET - Blue Oyster Cult
-------------------------------------------------------------------------------


Tabbed by: Rob Bradbury
Email: robrules91 'at' hotmail.com

Tuning: Standard




INTRO:

	A				 D	G	

e|---------------------------------------2--------3-----|
B|---------------2-----------------------3--------3-----|
G|-----14\\------2--------12-h-14--------2--------------| x6
D|-----14\\------2--------12-h-14-----------------------|
A|------------------------------------------------2-----|
E|------------------------------------------------3-----|



VERSE 1:

A		   F

The blossoms are falling

	  G

Making a white path, across the grass

A		   F			G

Thunderheads are building, your skin tightens


And you wait for the flash


A	     F			   G

Across the street, the boys are laughing


As they was each other's cars

A		   F			G					   

They turn up the hip hop, white boys


Rappin with the black stars



Intro x2



CHORUS:

C		F		Am		D

Are you in the pocket of the moment in this particular second

C		   F		Am		D

Screwed into the socket of the moment in this particular second

C	F	Am	D

Where time cannot be reckoned

C	D	Am		F

Are you in the pocket of the moment



Intro x2



VERSE 2:


A	     F		      G		

Overhead a rumble, it's not thunder


It's a 747

A		F		  G

The postman grumbles, it's past eleven


The street is sixth, it should be seventh

A		F			G

You hear the chiming of the ice cream truck


Rambling like in a dream

A		F		G

I hear your footsteps behind me


The sweetest eddy in the stream




Intro x2



SOLO - Verse x4



CHORUS:

C		F		Am		D

Are you in the pocket of the moment in this particular second

C		   F		Am		D

Screwed into the socket of the moment in this particular second

C	F	Am	D

Where time cannot be reckoned

C	D	Am		F

Are you in the pocket of the moment



SOLO 2 - A D G x8



CHORUS:


C		F		Am		D

Are you in the pocket of the moment in this particular second

C		   F		Am		D

Screwed into the socket of the moment in this particular second

C	F	Am	D

Where time cannot be reckoned

C	D	Am		F

Are you in the pocket of the moment



Intro x4

            
            
Suggest correction
Creating personal tab
Creating personal tab
You can edit any tab online and save it as your Personal.

You can edit, replace or remove any tab part or add personal notes – all changes will be seen only by you.

Personal tabs can be accessed anytime from any device, even offline.
Learn more »
Give kudos to tab author, rate the tab!
1 2 3 4 5
comments
print report bad tab
1 comment total.
0 reply
Astral Anchor 10 May 19, 2013 06:30 PM

e|---------------------------------------1--------3-----|
B|---------------------------------------1--------3-----|
G|-----14\\------2-p-0----12-h-14--------2--------------| x6
D|-----14\\------2-p-0----12-h-14--------3--------------|
A|---------------------------------------3--------2-----|
E|---------------------------------------1--------3-----|

This is what he looked to be doing live, and I like it a little more this way.

Your chords are pretty excellent, though. I feel confident most of us could perform with this. We could add leads later.

guest
You may want to rate the tab now too:
select rating
Wanna post a correction for this tab? Suggest correction