Oops, an error
Loading. Please wait.

Harvest Moon Tab

2,722 views 1 this week
no commentswrite comment
1 2 3 4 5
please rate
add to favorites
launch autoscroll
font size
0
reset
how to read this tab
guitar tuner
Tab Pro tools
  • play this tab
  • loop segment
  • change instrument
  • show fretboard
  • metronome
×
Best way to learn
"Harvest Moon"
Autoscroll
slow
fast
+/-
esc
set tempo
stop
Difficulty
intermediate
B.O.C Baby!!!!
This is a very hard song to transcribe by ear, but no one has a tab for this so im doing 
WITH the crazy solo!!!    MY FIRST TAB

Standard Tuning: (low to high) eadgbe
key of A

INTRO

e--------------------------|
b--------------------------|
g--------------------------|  (repeat as many times necessary)
d---------5-----------5----|
a------7----------3--------|
e--3/5--5-----0-1---1------|

VERSE

"this place has a history..."

--(12)-----------------------|
--13-----  ------------------|
--14-----) -14---------------|
--14-----   -15--------------|
--12-----   -15--------------|
---------  -13---------------|


LITTLE FILL

"war took the best from here"

                                                      (G)-----(F)
-----------------------3--33---1-|
-----------------------3--33---1-|
-----------------------4--44---2-|   (repeat only the g and f chords sequence as needed)
-----------------------5--55---3-|
-----------------------5--55---3-|
--1-0-1-3-1-0-1-3------3--33---1-|

"Harvest Moon..."

(G) (G) (A)
__________

-------------------|
-------------------|
-------------------|
-------------------| Repeat as much as necessary
-14--16-17---12-13-|
-12--14-15---10-11-|

(REPEAT INTRO)

(REPEAT EVERYTHING IN ORDER)

(SOLO)i no its not 100%

----------------------------------------------------|
----------------------------------------------------|
---------------------------------------------(5)----|
-------5h7-7-7-7-7-7-7-7-7-7-7--5h7-7-7-7-7-7-------|
----------------------------------------------------|
----------------------------------------------------|


----------------------------------------------------------------------|
----------------------------------------------------------------------|
------------------5--------------------5---5--7-7b-75---------5-------|
----------------7---7p5h7*----5h-7-7-7---7-------------------7--7p5h7-|
--------5p3-----------------------------------------------------------|
3h5-5-5-----5p3----------------------------------------5-5-5----------|


-------------------------------------------------------|
-------------------------------------------------------|
-----------------------5--7-7b-7p5h7h8p7p5----77777777-|
---------------5---5-7------------------------77777777-|
---345/7-5-6-7---7----------------------------55555555-|
345----------------------------------------------------|

(INTERLUDE THING)
--5-3-0--3-2-0---0------------------------16---------------------|
-------3-------3---3-1-0---1-0---------------14-13-14p13p14---14-|
-------------------------2-----2-0--------------------------15---|
-----------------------------------------------------------------|
-----------------------------------------------------------------|
-----------------------------------------------------------------|
-----------------------------------------------------------------|

-----16----------------------------------------------------------|
-------14-13-14p13-14p13-14--------------------------------------|
-----------------------------------------------------------------|
-------------------------------11h13p11-11-13-14-11h13p11----11--|
----------------------------------------------------------14-----|
-----------------------------------------------------------------|

----------------------------------------------------------------|
----------------------------------------------------------------|
----------------------------------------------------------------|
-----------------13----------13b----13-15------12-12-12-12-12---|
--------13h15h16----16p15p13-----16-----------------------------|
13h15h16--------------------------------------------------------|

------------------------------------------|
-----18-18-18-18-18-----16-16-16-16-16-16-|
-----17-17-17-17-17-----17-17-17-17-17-17-|
------------------------------------------|
------------------------------------------|
------------------------------------------|


(INTERLUDE THING)
--5-3-0---3-2-0---0-----------------|
--------3-------3---3-1-0---1-0-----|
--------------------------2-----2-0-|
------------------------------------|
------------------------------------|
------------------------------------|

---17-17h20p17--17----17-17h20p17--22-20----17-20-17h20p17----17-----16-|b
--------------20-------------------------------------------20----20b----|
------------------------------------------------------------------------|
------------------------------------------------------------------------|
------------------------------------------------------------------------|
------------------------------------------------------------------------|


-----------------------------------------------------------------------|
------17-20p17---------------------------------------------------------|
---------------19p18p17----------------------------17h18h19p18p17---17-|
------------------------19p18p17----------17h18h19---------------19----|
---------------------------------17h18h19------------------------------|
-----------------------------------------------------------------------|


                          (NOW I STARTED TO GUESS LOL)
------------22---20-19-24-22------------------------------------|
-------------------------------------------------------17h18h19-|
-------20b-----------------------------------17h18h19-----------|
------------------------------------17h18h19--------------------|
---------------------------17h18h19-----------------------------|
----------------------------------------------------------------|


-----------------------------------------|
------16--16---16---------17----17---17--|
---17---17---17---17----19---19-----19---|
-----------------------------------------|
-----------------------------------------|
-----------------------------------------|


(INTERLUDE)

There u go... yep the solo is wrong and i probably messed up my typing (im tired) but 
the only tab of the rockin harvest moon.....be free to email me with questions and 
:D
comments
We did not receive enough feedback on this tab! Please rate:
print report bad tab
1 2 3 4 5
I want to post or [tab]
guest
You may want to rate the tab now too:
select rating
Please do not post tabs as comments. Select "correction" instead!