Oops, an error
Loading. Please wait.

With The Sickness bass

200 views 1 this week
no commentswrite comment
1 2 3 4 5
3 more votes to show rating
add to favorites
×
Save as Personal and add changes to this tab that will be seen only by you. Learn more ›
×
You can save this tab as Personal to edit and correct it or add notes. All changes will be seen only by you. Learn more »
launch autoscroll
font size
0
reset
guitar tuner
edit
Autoscroll
slow
fast
+/-
esc
set tempo
stop
LEFTOVER CRACK - WITH THE SICKNESS
MEDICORE GENERICA: 2001
TABBED BY: JOSH HUGHFF
TUNING: STANDARD E.A.D.G

INTRO:

G:|-----------|---------|
D:|-----------|---------|
A:|---------7-|---------|
E:|6-66-6-6---|6-66-6-6-|

VERSE: X4

G:|------------------|
D:|------------------|
A:|7-777777----------|
E:|---------6-666666-|

CHORUS: X4
                       4TH TIME END ON
G:|------------------|----------------|
D:|------------------|----------------|
A:|7-777777----------|7---------------|
E:|---------6-666666-|----------------|

GAP:

G:|--------------------------------|
D:|--------------------------------|
A:|---------7--------7-------------|
E:|6-66-6-6------6--------6-66-6-6-|

ENDING: X4
                      4TH TIME END ON
G:|------------------|---------------|
D:|------------------|---------------|
A:|7-777777----------|7--------------|
E:|---------6-666666-|---------------|


FUCK YOU.....YEAH....WHO STOLE THE MONEY FROM THE HOUSE FUND? WAS IT THE COCONUT MAN? 
THE COCONUT MAN!!

RED ARMY PUNX

www.myspace.com/redarmyofficial

            
            
Suggest correction
Creating personal tab
Creating personal tab
You can edit any tab online and save it as your Personal.

You can edit, replace or remove any tab part or add personal notes – all changes will be seen only by you.

Personal tabs can be accessed anytime from any device, even offline.
Learn more »
Give kudos to tab author, rate the tab!
1 2 3 4 5
comments
print report bad tab
guest
Wanna post a correction for this tab? Suggest correction