Oops, an error
Loading. Please wait.

Malaguena tab

version 2
version 2

Whole song

Interactive

7,392 views 12 this week
no commentswrite comment
1 2 3 4 5
x 5
add to favorites
×
Save as Personal and add changes to this tab that will be seen only by you. Learn more ›
×
You can save this tab as Personal to edit and correct it or add notes. All changes will be seen only by you. Learn more »
launch autoscroll
font size
0
reset
how to read this tab
guitar tuner
edit
Autoscroll
slow
fast
+/-
esc
set tempo
stop
Author
Tabbers playing skills
advanced
E-|---Song:-Malaguena------------------------------|
A-|---Author:-Francisco-Tarrega--------------------|
D-|---Transcription-by:Christian Liang-------------|
G-|---E-Mail:christian.liang@gmail.com-------------|   
B-|---http://www.classclef.com---------------------|
E-|---Enjoy!---------------------------------------|





=========================================================================
       Malaguena by Francisco Tarrega (1852-1909)
=========================================================================


[1]   crescendo...
E|-------0-------0-------0---|-------0-------0-------0---|
B|-------0-------0-------0---|-------0-------0-------0---|
G|-------1-------1-------1---|-------1-------1-------1---|
D|---------------------------|---------------------------|
A|-------------------2-------|-------------------2-------|
E|---0-------4---------------|---0-------4---------------|
 |   |   |   |   |   |   |   |   |   |   |   |   |   |   |
L        1   4   1   2   1           1   4   1   2   1    

R    p   ami p   ami p   ami     p   ami p   ami p   ami 
    
           

[3]                               decrescendo...
E|-------0-------0-------0---|-------0-------0-------0---|
B|-------1-------1-------1---|-------1-------0-------0---|
G|-------2-------2-------2---|-------2-------2-------2---|
D|---------------------------|---------------------------|
A|---0-------3-------2-------|---0-----------------------|
E|---------------------------|-----------3-------1-------|
 |   |   |   |   |   |   |   |   |   |   |   |   |   |   |
L        1   4   1   2   1           1   4   3   1   3
         3       3       3           3

R    p   a   p   a   p   a       p   a   p   a   p   a 
         m       m       m           m       m       m
         i       i       i           i       i       i
[5]   
E|-------0-------0-------0---|-------0-------0-------0---|
B|-------0-------0-------0---|-------0-------0-------0---|
G|-------1-------1-------1---|-------1-------1-------1---|
D|---------------------------|---------------------------|
A|-------------------2-------|-------------------2-------|
E|---0-------4---------------|---0-------4---------------|
 |   |   |   |   |   |   |   |   |   |   |   |   |   |   |
L        1   4   1   2   1           1   4   1   2   1    

R    p   a   p   a   p   a       p   a   p   a   p   a 
         m       m       m           m       m       m
         i       i       i           i       i       i
   
[7]
E|-------0-------0-------0---|-------0-------0-------0---|
B|-------1-------1-------1---|-------1-------1-------1---|
G|-------2-------2-------2---|-------2-------2-------2---|
D|---------------------------|---0-------2-------3-------|
A|---0-------2-------3-------|---------------------------|
E|---------------------------|---------------------------|
 |   |   |   |   |   |   |   |   |   |   |   |   |   |   |
L        1   2   1   4   1           1   2   3   4   3
         3       3       3           3       1       1

R    p   a   p   a   p   a       p   a   p   a   p   a 
         m       m       m           m       m       m
         i       i       i           i       i       i

[9]
E|-----------0-------0-------||------0-------0-------0---|
B|-----------0-------0-------||----------3-------3-------|
G|-----------1-------1-------||*---------4-------4-------|
D|---------------------------||*-------------------------|
A|---------------------------||--------------------------|
E|---0=====================--||--0====================---|
 |   |   |   |   |   |   |   |   |   |   |   |   |   |   |
L            1       1                   2       2
                                         3       3

R    p       ami     ami         p   a   m   a   m   a
             m       m                   i       i
             i       i

[11]
E|-------0-------0-------0---|---------------------------|
B|-----------1-------1-------|---------------------------|
G|-----------2-------2-------|---------------------------|
D|---------------------------|-----------0-h-2---5-p-3---|
A|---0=====================--|---2-h-3-------------------|
E|---------------------------|---------------------------|
 |   |   |   |   |   |   |   |   |   |   |   |   |   |   |
L            2       2           1   2       1   4   2
             3       3

R    p   a   m   a   m   a       p       p       p
             i       i

[13]
E|-----------0-------0------||-----------0---4---7-------|
B|-----------0-------0------||---------------------------|
G|-----------1-------1-----*||*----------7---------------|
D|-------------------------*||*--------------------------|
A|--------------------------||---------------------------|
E|---0=====================-||---0====================---|
 |   |   |   |   |   |   |   |   |   |   |   |   |   |   |
L            1       1                   3   1   4
                                         
R    p       ami     ami         p       m   i   m   
             m       m                   p       
             i       i

[15]         V3..............            VII3    V3
E|---------------5---8-------|-----------7-------5-------|
B|-----------5---------------|---------------8-------6---|
G|-----------5---------------|-----------7-------5-------|
D|---------------------------|---------------------------|
A|---------------------------|---------------------------|
E|---0=====================--|---0=====================--|
 |   |   |   |   |   |   |   |   |   |   |   |   |   |   |
L            1   1   4                   1   2   1   2
                                         1       1

R    p       i   a   a           p       m   i   m   i
             p                           p       p


[17]
E|-------0---------------0---|-----------------------0---|
B|-------------------0-------|-------6-----------6-------|
G|---------------7-----------|---------------7-----------|
D|-----------6---------------|-----------6---------------|
A|---------------------------|---------------------------|
E|---0=====================--|---0=====================--|
 |   |   |   |   |   |   |   |   |   |   |   |   |   |   |
L            1   3                   2   1   3   2

R    p   a   p   i   m   a       p   m   p   i   m   a


[19]
E|-----------------------0---|---------------------------|
B|-------6-----------6-------|-------3---1-------0-------|
G|---------------5-----------|---4-----------2-------2---|
D|-----------7---------------|---0-------2-------3-------|
A|---------------------------|---------------------------|
E|---0====================---|---------------------------|
 |   |   |   |   |   |   |   |   |   |   |   |   |   |   |
L    p   m   p   i   m   a       i   m   m   i   m   i
                                 p       p       p

R        2   3   1   2           3   1   1   3   4   3
                                         2
[21]
E|-----------0-------0------||---------------------------|
B|-----------0-------0------||---------------------------|
G|-----------1-------1-----*||---------------------------|
D|-------------------------*||---------------------------|
A|--------------------------||-----------------------2---|
E|---0=====================-||---0-h-1-h-2-h-3-h-4-------|
 |   |   |   |   |   |   |   |   |   |   |   |   |   |   |
L            1       1               1   2   3   4   2

R    p       a       a           p                   p
             m       m
             i       i

[23]
E|---------------------------|---------------------------|
B|---------------------------|---------------------------|
G|---------------------------|---2-------0h2p0-----------|
D|-------------------2-h-3---|-------3-----------3---2---|
A|---0-h-2-h-3-h-5-----------|---------------------------|
E|---------------------------|---------------------------|
 |   |   |   |   |   |   |   |   |   |   |   |   |   |   |
L        1   2   4   1   2       1   2     1     2   2

R    p               p           i   p   i       p   p


[25]
E|-----------0-------0-------|---------------------------|
B|-----------0-------0-------|---------------------------|
G|-----------1-------1-------|-----------------------0---|
D|---------------------------|-----------0-h-2---3-------|
A|---------------------------|---------------------------|
E|---0=====================--|---------------------------|
 |   |   |   |   |   |   |   |   |   |   |   |   |   |   |
L            1       1                       1   2

R    p       a       a
             m       m
             i       i

[27]
E|-------------------------------------------------------|
B|-------------------------------------------------------|
G|-------5---------------4h5p4---2-------0---------------|
D|-----------------------------------------------3-------|
A|-------------------------------------------------------|
E|-------------------------------------------------------|
 |       |       |       |       |       |       |       |
L        4               3h4p3   1               2


[28]
E|---------------------------|-----------0-------0-------|
B|---------------------------|-----------1-------1-------|
G|---------------------------|-----------0-------0-------|
D|---0-h-2---3-p-0-----------|---------------------------|
A|-------------------3-------|---3====================---|
E|---------------------------|---------------------------|
 |   |   |   |   |   |   |   |   |   |   |   |   |   |   |
L        2   3       3           3       1       1

R                                p       a       a
                                         m       m
                                         i       i
[30]
E|-------------------------------------------------------|
B|---------------------------------------5---------------|
G|-------------------------------0-----------------------|
D|-----------------------2-------------------------------|
A|-------3---h---5---------------------------------------|
E|-------------------------------------------------------|
 |       |       |       |       |       |       |       |
L        2       4       1       4

p        p               i       m       a

[31]
E|-------------------------------------------------------|
B|-------3h5p3---1-------0-------1-------3-------1-------|
G|-------------------------------------------------------|
D|-------------------------------------------------------|
A|-------------------------------------------------------|
E|-------------------------------------------------------|
 |       |       |       |       |       |       |       |
L        2h4p2   1               1       3       1


[32]                             I.......................
E|---------------------------|-----------1-------1-------|
B|---------------------------|-----------1-------1-------|
G|---5-p-3---2---0-----------|-----------2-------2-------|
D|-------------------3-------|---------------------------|
A|---------------------------|---------------------------|
E|---------------------------|---1=====================--|
 |   |   |   |   |   |   |   |   |   |   |   |   |   |   |
L    4   2   1       3           1       1       1
                                         1       1
                                         2       2

R                                p       a       a
                                         m       m
                                         i       i

[34]
E|-------------------------------------------------------|
B|-------------------------------------------------------|
G|-----------------------------------------------0-------|
D|-----------------------0---h---2-------3---------------|
A|-------------------------------------------------------|
E|-------3-----------------------------------------------|
 |       |       |       |       |       |       |       |
L        3                       1       2

[35]
E|-------------------------------------------------------|
B|-------------------------------------------------------|
G|-------5---------------4h5p4---2-------0---------------|
D|-----------------------------------------------3-------|
A|-------------------------------------------------------|
E|-------------------------------------------------------|
 |       |       |       |       |       |       |       |
L        4               3h4p3   1               2


[36]
E|---------------------------|-----------0-------0-------|
B|---------------------------|-----------1-------1-------|
G|---------------------------|-----------0-------0-------|
D|---0-h-2---3-p-0-----------|---------------------------|
A|-------------------3-------|---3=====================--|
E|---------------------------|---------------------------|
 |   |   |   |   |   |   |   |   |   |   |   |   |   |   |
L        2   3       3           3       1       1

R                                p       a       a
                                         m       m
                                         i       i

[38]
E|---------------0-----------|---------------------------|
B|-----------1-------8-------|---8p6-5---5p3-----0-h-1---|
G|-------0-------------------|---------------5-----------|
D|---2-----------------------|---------------------------|
A|---------------------------|---------------------------|
E|---------------------------|---------------------------|
 |   |   |   |   |   |   |   |   |   |   |   |   |   |   |
L    2       1       4           4p2 1   3p1 3       1

R    p   i   m   a   m


[41]
E|---------------------------|-----------1-------1-------|
B|---3-p-1---0---------------|-----------0-------0-------|
G|---------------2---0-------|-----------0-------0-------|
D|---------------------------|---------------------------|
A|---------------------------|---------------------------|
E|---------------------------|---3-----------------------|
 |   |   |   |   |   |   |   |   |   |   |   |   |   |   |
L    3   1       2               3       1       1

R                                p       a       a
                                         m       m
                                         i       i

[42]
E|-------------------------------------------------------|
B|-------------------------------------------------------|
G|-----------------------------------------------0-------|
D|-----------------------0---p---2-------3---------------|
A|-------------------------------------------------------|
E|-------3-----------------------------------------------|
 |       |       |       |       |       |       |       |
L        3                       2       3

R        p               i               i       m

[43]
E|-------------------------------------------------------|
B|-------1---------------0h1p0---------------------------|
G|-------------------------------2-------0---------------|
D|-----------------------------------------------3-------|
A|-------------------------------------------------------|
E|-------------------------------------------------------|
 |       |       |       |       |       |       |       |
L        1                 1     2               3


[44]
E|---------------------------|-----------0-------0-------|
B|---------------------------|-----------1-------1-------|
G|---------------------------|-----------0-------0-------|
D|---0---2---3---0-----------|---------------------------|
A|-------------------3-------|---3====================---|
E|---------------------------|---------------------------|
 |   |   |   |   |   |   |   |   |   |   |   |   |   |   |
L        2   3       3           3       1       1

R                                p       a       a
                                         m       m
                                         i       i

[46]
E|-------------------------------------------------------|
B|-------------------------------------------------------|
G|---------------------------------------0---p---3-------|
D|-----------------------2---p---3-----------------------|
A|-------3---p---5---------------------------------------|
E|-------------------------------------------------------|
 |       |       |       |       |       |       |       |
L        2       4       1       2               2


[47]
E|-------------------------------------------------------|
B|-------------------------------------------------------|
G|-------2-------5-------3h5p3---0-----------------------|
D|---------------------------------------3---------------|
A|-------------------------------------------------------|
E|-------------------------------------------------------|
 |       |       |       |       |       |       |       |
L        1       4       2h4p2           3


[48]       I........................................
E|-----------------------1---------------1---------------|
B|-----------------------1---------------1---------------|
G|-----------------------2---------------2---------------|
D|-------------------------------------------------------|
A|-------------------------------------------------------|
E|-------1-----------------------------------------------|
 |       |       |       |       |       |       |       |
L        1               1               1
                         1               1
                         2               2

R        p               a               a
                         m               m
                         i               i
[49]
E|-------------------------------------------------------|
B|-------------------------------------------------------|
G|---------------2-------0h2p0---------------------------|
D|-------3-----------------------3-------2---------------|
A|-------------------------------------------------------|
E|-------------------------------------------------------|
 |       |       |       |       |       |       |       |
L        3       2         2     3       2


[50]                              / 3 \   / 3 \   / 3 \
E|-----------0-------0-------|---------0-------0-------0-|
B|-----------0-------0-------|------3-------1-------0----|
G|-----------1-------1-------|---4-------2-------1-------|
D|---------------------------|---------------------------|
A|---------------------------|---------------------------|
E|---0=====================--|---------------------------|
 |   |   |   |   |   |   |   |   |   |   |   |   |   |   |
L            1       1           3   2   3   2   1

R    p       a       a           p  i  m p  i  m p  i  m   
             m       m
             i       i


[52] / 3 \   / 3 \   / 3 \       / 3 \   / 3 \   / 3 \
E|--------0-------0-------0--|--------0-------0-------0--|
B|-----1-------5-------3-----|-----1-------0-------------|
G|----------5-------4--------|--2-------0----------2-----|
D|---------------------------|------------------3--------|
A|--0------------------------|---------------------------|
E|---------------------------|---------------------------|
 |  |  |  | |  |  | |  |  |  |  |  |  | |  |  | |  |  |  |
L      1    3  4    3  2        3  2            3  2

R   p  i  m p  i  m p  i  m     p  i  m p  i  m p  i  m



[54]                             / 3 \   / 3 \   / 3 \
E|-----------0-------0-------|--------4-7-------5--------|
B|-----------0-------0-------|--4h-5-------2h-3----------|
G|-----------1-------1-------|----------------------4h-5-|
D|---------------------------|---------------------------|
A|---------------------------|---------------------------|
E|---0====================---|---------------------------|
 |   |   |   |   |   |   |   |  |  |  | |  |  | |  |  |  |
L            1       1          1  2  1 4  1  2 4  2  3

R    p       a       a          p     m i  p    i  p
             m       m 
             i       i

[56] / 3 \   / 3 \   / 3 \       / 3 \   / 3 \   
E|--3-------1-------5--------|--3-------1----------------|
B|---------------------------|---------------------------|
G|-----1h-2----4-p5----3-h4--|-----1-h2----------2p0-----|
D|---------------------------|-------------2-/3------3p2-|
A|---------------------------|---------------------------|
E|---------------------------|---------------------------|
 |  |  |  | |  |  | |  |  |  |  |  |  | |  |  |  |   |   |
L   i  p    i  p    i  p        i  p    i  p     i   p

R   4  1  2 1  2  3 4  1  2     1  1  2 1  3     2   3 2


[58]
E|-----------0-------0-------|---------------------------|
B|-----------0-------0-------|---------------------------|
G|-----------1-------1-------|-----------------------0---|
D|---------------------------|-------------------2-------|
A|---------------------------|-------0---2-p-5---3-------|
E|---0=====================--|---3-----------------------|
 |   |   |   |   |   |   |   |   |   |   |   |   |   |   |
L            1       1           2       1   4   1
                                                 2

R    p       a       a           p   i           i   m
             m       m                           p
             i       i

[60]
E|---------------------------|---------------0-----------|
B|-------0-----------0-------|-----------0-----------0---|
G|-----------2-----------2---|-------1-----------1-------|
D|---3-----------3-----------|---2-----------------------|
A|---5====================---|---------------------------|
E|---------------------------|---0=====================--|
 |   |   |   |   |   |   |   |   |   |   |   |   |   |   |
L    2       1   2       1       2   1           1
     4

R    i   a   m   i   a   m       i   i   m   a   i   m
     p                           p

[62]
E|-----------0-------8-------|---7-------5-------3-------|
B|-------1-------10------10--|-------8-------6-------5---|
G|---2-----------------------|---------------------------|
D|---------------------------|---9-------7-------5-------|
A|---0====================---|---------------------------|
E|---------------------------|---------------------------|
 |   |   |   |   |   |   |   |   |   |   |   |   |   |   |
L    2   1       4   1   2       1   2   1   2   1   4
                                 3       3       3

R    i   m   a   i   m   i       m   i   m   i   m   i
     p                           p       p       p

[64]
E|---1-------0---------------|---------------------------|
B|-------3-------1---3-------|---1-------0---------------|
G|-----------------------4---|-------2-------0---2-------|
D|---3-------2-------0-------|-----------------------3---|
A|---------------------------|---3-----------------------|
E|---------------------------|-----------3-------1-------|
 |   |   |   |   |   |   |   |   |   |   |   |   |   |   |
L    1   4   2   1   1   2       1   2   3       2   4
     3                           4               1

R    m   i   m   i   m   i       m   i   m   i   m   i
     p       p       p           p       p       p

[66]
E|-----------0-------0-------|---1-------0---------------|
B|-----------0-------0-------|---0==========-3-----------|
G|-----------1-------1-------|---0==========-----5-p-4---|
D|---------------------------|---------------------------|
A|---------------------------|---------------------------|
E|---0====================---|---------------------------|
 |   |   |   |   |   |   |   |   |   |   |   |   |   |   |
L            1       1           1           2   4   3
 
R    p       a       a           a       a   m   i
             m       m           m
             i       i           i

[68]
E|---------------------------|---------------------------|
B|-------1-------3---1-p-0---|-----------0-------1-------|
G|---2-------4---------------|---2-------0-------0-------|
D|---3-------5-------2-------|---3-------0-------2-------|
A|---------------------------|---------------------------|
E|---------------------------|---------------------------|
 |   |   |   |   |   |   |   |   |   |   |   |   |   |   |
L    2   1   2   1   1           2               1
     3       3       2           3               2

R    i   m   i   m   m           i       m       m
     p       p       p           p       i       i
                                         p       p

[70]
E|-----------0-------0-------|---6-------5-p-3---1---0---|
B|-----------1-------1-------|---5-----------------------|
G|-----------0-------0-------|---0-----------------------|
D|---------------------------|---------------------------|
A|---3-----------------------|---3-----------------------|
E|---------------------------|---------------------------|
 |   |   |   |   |   |   |   |   |   |   |   |   |   |   |
L    3       1       1           4       4   2   1
                                 3
                                 1  
 
R    p       a       a           a  
             m       m           m
             i       i           i
                                 p

[72]                                             I.......
E|-------1-------3---1-p-0---|-----------0-------1-------|
B|---3-------5---------------|---3-------1-------1-------|
G|---3-------5-------2-------|---3-------0-------2-------|
D|---------------------------|---------------------------|
A|---------------------------|---------------------------|
E|---------------------------|---------------------------|
 |   |   |   |   |   |   |   |   |   |   |   |   |   |   |
L    4   1   4   1   1           4       1       1
     3       3       2           3               1
                                                 2

R    i   m   i   m   m           m       a       a
     p       p       i           i       m       m
                                         i       i

[74].........................
E|-----------1-------1-------|---1-------0---------------|
B|-----------1-------1-------|---0==========-3-----------|
G|-----------2-------2-------|---0==========-----5-p-4---|
D|---------------------------|---------------------------|
A|---------------------------|---------------------------|
E|---1=====================--|---------------------------|
 |   |   |   |   |   |   |   |   |   |   |   |   |   |   |
L    1       1       1           1           2   4   3
             1       1 
             2       2

R    p       a       a           a       a   m   i
             m       m           m
             i       i           i

[76]
E|---------------------------|---------------------------|
B|-------1-------3---1-p-0---|-----------0-------1-------|
G|---2-------4---------------|---2-------0-------0-------|
D|---3-------5-------2-------|---3-------0-------2-------|
A|---------------------------|---------------------------|
E|---------------------------|---------------------------|
 |   |   |   |   |   |   |   |   |   |   |   |   |   |   |
L    2   1   2   1   1           2               1
     3       3       2           3               2

R    i   m   i   m   m           i       m       m
     p       p       p           p       i       i
                                         p       p

[78]
E|-----------0-------0-------|---8-------7-p-5---3-p-2---|
B|-----------1-------1-------|---6-----------------------|
G|-----------0-------0-------|---------------------------|
D|---------------------------|---0====================---|
A|---3-----------------------|---------------------------|
E|---------------------------|---------------------------|
 |   |   |   |   |   |   |   |   |   |   |   |   |   |   |
L    3       1       1           4       3   1   2   1
                                 2
R    p       a       a           m
             m       m           i
             i       i           p


[80]                                             III.....
E|-------3-------5---3-p-2---|-----------2-------3-------|
B|---5-------7---------------|---5-------3-------3-------|
G|---5-------7-------4-------|---5-------2-------4-------|
D|---------------------------|---------------------------|
A|---------------------------|---------------------------|
E|---------------------------|---------------------------|
 |   |   |   |   |   |   |   |   |   |   |   |   |   |   |
L    4   1   4   1   4   1       3       1       1
     3       3       3           4       4       1
                                         1       2

R    i   m   i   m   m           i       m       m
     p       p       p           p       i       i
                                         p       p

[82].........................
E|-----------3-------3-------|---1-------0---------------|
B|-----------3-------3-------|---0==========-3-----------|
G|-----------4-------4-------|---0==========-----5-p-4---|
D|---------------------------|---------------------------|
A|---------------------------|---------------------------|
E|---3====================---|---------------------------|
 |   |   |   |   |   |   |   |   |   |   |   |   |   |   |
L    1       1       1           1           2   4   3
             1       1
             2       2

R    p       a       a           a       a   m   i
             m       m           m
             i       i           i

[84]
E|---------------------------|---------------------------|
B|-------1-------3---1-p-0---|-----------0-------1-------|
G|---2-------4---------------|---2-------0-------0-------|
D|---3-------5-------2-------|---3-------0-------2-------|
A|---------------------------|---------------------------|
E|---------------------------|---------------------------|
 |   |   |   |   |   |   |   |   |   |   |   |   |   |   |
L    2   1   2   1   1           2               1
     3       3       2           3               2

R    i   m   i   m   m           i       m       m
     p       p       p           p       i       i
                                         p       p

[86]
E|-----------0-------0-------|---6-------5-p-3---1---3---|
B|-----------1-------1-------|---5-----------------------|
G|-----------0-------0-------|---0-----------------------|
D|---------------------------|---------------------------|
A|---3=====================--|---3-----------------------|
E|---------------------------|---------------------------|
 |   |   |   |   |   |   |   |   |   |   |   |   |   |   |
L    3       1       1           4       4   2   1   4
                                 3
                                 1

R    p       a       a           a
             m       m           m
             i       i           i
                                 p

[88]
E|---5-/-6---5---4---5-------|---------------5-----------|
B|---------------------------|-----------4-------4-------|
G|---5====================---|-------5---------------5---|
D|---3====================---|---3====================---|
A|---------------------------|---------------------------|
E|---------------------------|---------------------------|
 |   |   |   |   |   |   |   |   |   |   |   |   |   |   |
L    4       4   2   4           1   3   2   4   2   3
     3
     1

R    a       i   m   i           p   i   m   a   m   i
     i
     p

[90]       
E|-----------------------4---------------4---------------|
B|-----------------------5---------------5---------------|
G|-----------------------4---------------4---------------|
D|-------------------------------------------------------|
A|-------------------------------------------------------|
E|-------0========================================-------|
 |       |       |       |       |       |       |       |
L                        4               4
                         2               2
                         3               3

R        p               a               a
                         m               m
                         i               i

[91]       
E|-------10------12------13------13p12p10--------10------|
B|---------------------------------------13--------------|
G|-------------------------------------------------------|
D|-------------------------------------------------------|
A|-------------------------------------------------------|
E|-------0=========================================------|
 |       |       |       |       |       |       |       |
L        1       3       4       4 p3 p1 4       1  


[92]       
E|-----------------------10--------------0---------------|
B|-------12------13--------------12----------------------|
G|-------------------------------------------------------|
D|-------------------------------------------------------|
A|-------------------------------------------------------|
E|-------0========================================-------|
 |       |       |       |       |       |       |       |
L        3       4       1       3

[93]       
E|-------8-------10------12------12p10p8---------8-------|
B|---------------------------------------12--------------|
G|-------------------------------------------------------|
D|-------------------------------------------------------|
A|-------------------------------------------------------|
E|-------0========================================-------|
 |       |       |       |       |       |       |       |
L        1       3       4       4p 3 p1 3       1


[94]       
E|-----------------------8---------------0---------------|
B|-------10------12--------------10----------------------|
G|-------------------------------------------------------|
D|-------------------------------------------------------|
A|-------------------------------------------------------|
E|-------0========================================-------|
 |       |       |       |       |       |       |       |
L        3       4       1       3 


[95]       
E|-------7-------8-------10------10p8p7----------7-------|
B|---------------------------------------10--------------|
G|-------------------------------------------------------|
D|-------------------------------------------------------|
A|-------------------------------------------------------|
E|-------0========================================-------|
 |       |       |       |       |       |       |       |
L        1       2       4       4 p2p1  4       1



[96]       
E|-----------------------7---------------0---------------|
B|-------9-------10--------------9-----------------------|
G|-------------------------------------------------------|
D|-------------------------------------------------------|
A|-------------------------------------------------------|
E|-------0========================================-------|
 |       |       |       |       |       |       |       |
L        3       4       1       3



[97]       
E|-------5-------7-------8-------8p7p5-----------5-------|
B|---------------------------------------8---------------|
G|-------------------------------------------------------|
D|-------------------------------------------------------|
A|-------------------------------------------------------|
E|-------0========================================-------|
 |       |       |       |       |       |       |       |
L        1       3       4       4p3p1   4       1


[98]
E|-------3---5---------------|---------------------------|
B|---6-----------6---3---5---|---6---3---0---1---3---0---|
G|---------------------------|---------------------------|
D|---------------------------|---------------------------|
A|---------------------------|---------------------------|
E|---0====================---|---0====================---|
 |   |   |   |   |   |   |   |   |   |   |   |   |   |   |
L    4   1   3   4   1   3       4   1       1   3



[100]       
E|-------------------------------------------------------|
B|-------------------------------------------------------|
G|-------0-------2-------4-------0---------------0-------|
D|---------------------------------------3---------------|
A|-------------------------------------------------------|
E|-------------------------------------------------------|
 |       |       |       |       |       |       |       |
L                2       4               3



[101]       
E|-------------------------------------------------------|
B|-------------------------------------------------------|
G|-------2h4p2---0---------------------------------------|
D|-----------------------3-------2-------0-------3-------|
A|-------------------------------------------------------|
E|-------------------------------------------------------|
 |       |       |       |       |       |       |       |
L        2h4p2           3       2               3 



[102]       
E|-----------------------0-------------------------------|
B|-----------------------0-------------------------------|
G|-----------------------1-------------------------------|
D|-------------------------------------------------------|
A|-------------------------------------------------------|
E|-------0========================================-------|
 |       |       |       |       |       |       |       |
L                        1

R        p               a
                         m
                         i


Technique
102 Bars
3/4 Time Signature

Watch out for....

Bar[51] - [57] hammer on and pull off in triplets
Bar[22] - [23] rapid half step hammer ons
Bar[26] - [50] slowest part of song, play with feeling.
Bar[63] - [65] descending chords positions from fret 9 
Bar[79] - [81] hardest part of song. keep in tempo
Bar[91] - [102] descending scale from the 13 fret

Play Malaguena in this order
Bar[1]-[8] Play 2X
Bar[9]-[12] Play 2X
Bar[13]-[20] Play 2X
Bar[21] 

            
            
Suggest correction
Creating personal tab
Creating personal tab
You can edit any tab online and save it as your Personal.

You can edit, replace or remove any tab part or add personal notes – all changes will be seen only by you.

Personal tabs can be accessed anytime from any device, even offline.
Learn more »
comments
print report bad tab
guest
You may want to rate the tab now too:
select rating
Wanna post a correction for this tab? Suggest correction