Oops, an error
Loading. Please wait.

Espíritu Pionero bass

version 2
version 2

Whole song

Interactive

by Panda
108 views 1 this week
no commentswrite comment
1 2 3 4 5
3 more votes to show rating
add to favorites
×
Save as Personal and add changes to this tab that will be seen only by you. Learn more ›
×
You can save this tab as Personal to edit and correct it or add notes. All changes will be seen only by you. Learn more »
launch autoscroll
font size
0
reset
guitar tuner
edit
Autoscroll
slow
fast
+/-
esc
set tempo
stop
Espíritu Pionero BASS TAB (tablatura de BAJO)  by LoloLalaLe (East)

Song is played with a bass pick. La canción se toca con plumilla.

Tuning: half step down (Bemol)
Intro:
Gb|-------------------------|
Db|-------------------------|  x1
Ab|5-5-5-5-5/17-17-17-17-17\|
Eb|-------------------------|

Main Riff:
Gb|--------------------------------------------------------------------------|
Db|---------------------------4---2-0-----------------------------4---2-0----|   x1
Ab|0-4-5p4-0-0--4-5p4-0---4--4--------4-2-0-4-5p4-0-0-4-5p4-0--4-4--------4-2|
Eb|-------(2/5)---------2--2---0-0---------------(2/5)-------2--2--0-0-------|

Verse "¿qué pasó?..."
Gb|-------------------------------------------------------------------------|        
Db|---------------------------4---2-0-----------------------------4---2-0---|  x1
Ab|0-4-5p4-0-0--4-5p4-0---4--4--------4-2-0-4-5p4-0-0-4-5p4-0--4-4--------4-|
Eb|-------(2/5)---------2--2---0-0---------------(2/5)-------2--2--0-0------|
follows (seguido):
Gb|------------4-4-------------4-4-------------4-4----------------------|
Db|---4-4-0/2-2-2-----4-4-0/2-2-2-----4-4-0/2-2-2-2-0-0-0-0/12-12-12-12\|  x1
Ab|0/2-2-----------0/2-2-----------0/2-2--------------------------------|
Eb|---------------------------------------------------------------------|


Verse2 "Abigail..."  x1

In the end of the verse, at 1:10 it changes to: 
(al final del verso 2, al 1:10, cambia a:)
pre-chorus "los expulsé igual que a ti..."
Gb|-----------------|
Db|/7-7-7-7-7-7-7-7\|
Ab|-----------------|
Eb|-----------------|

Chorus "Muy original..."
Gb|--------------------------------------------------------------------------------|
Db|----7-7------11--11------7-7------11--11------7-7------9-9----------------------|  x1
Ab|5-5--5-5/9-9---9---9\5-5--5-5/9-9---9---9\5-5--5-5/7-7--7-7-5-5-5-5/12-12-12-12\|
Eb|--------------------------------------------------------------------------------|

Intro x1

Verse "eso es, tienen libre albedrío..." 
just like verse 2, with the pre-chorus  x1
                                         
igual que el verso 2, con el pre-coro

Chorus "Muy original" ends instead of 4 Ab notes just one:
(termina en vez de 4 notas La-bemol, sólo 1):
Gb|---|
Db|---|
Ab|/12|
Eb|---|


legend:
()  optional (opcional)
/   slide up (could be to a non-specific note; puede ser a una nota no específica)
\   slide down (same as in slide up; lo mismo que en slide up)
h   hammer on
p   pull off




easy and a fun song to play, you can add your own style or rhythm and it still sounds good.
canción fácil y divertida de tocar, puedes meterle tu ritmo o estilo y sigue sonando bien.

            
            
Suggest correction
Creating personal tab
Creating personal tab
You can edit any tab online and save it as your Personal.

You can edit, replace or remove any tab part or add personal notes – all changes will be seen only by you.

Personal tabs can be accessed anytime from any device, even offline.
Learn more »
Give kudos to tab author, rate the tab!
1 2 3 4 5
comments
print report bad tab
guest
You may want to rate the tab now too:
select rating
Wanna post a correction for this tab? Suggest correction