Oops, an error
Loading. Please wait.

Another Morning Stoner power

1,970 views 1 this week
1 commentread comment
1 2 3 4 5
x 5
add to favorites
guitar tuner
Autoscroll
slow
fast
+/-
esc
set tempo
stop
"Another Morning Stoner"
demo version
Play now

or get full version for Free

×
Get full version now!
Learn and play this song
in Tab Pro
Try for free

or get $10 off Welcome Bonus

Get welcome bonus
Get access to Tab Pro version of “Another Morning Stoner”!
Tab Pro is a premium guitar tab service, available on PC, Mac, iOS and Android
TRY FOR FREE
To download “Another Morning Stoner” Power tab click button below
Please note that you must have Power Tab software installed on your
computer in order to view this file.
Suggest correction
comments
report bad tab
1 comment total.
0 reply
moeppi 31 Sep 20, 2006 09:09 AM

It's a good tab, but it would be easier to play like this

e|------0------
b|---3------3--
g|--4-4---4--4-
d|-------------
a|-------------
e|-0-----------

e|-/2-0-3-2----
b|--0-------0--
g|-------------
d|-------------
a|-------------
e|-------------

e|---3--6--3---
b|-------------
g|--4-4--4-----
d|-------------
a|-0-----------
e|-------------

e|-/7-5-8-7-5--
b|--0--------0-
g|-------------
d|-------------
a|-------------
e|-------------

guest