Oops, an error
Loading. Please wait.

Source Tags And Codes tab

97 views 1 this week
no commentswrite comment
1 2 3 4 5
3 more votes to show rating
add to favorites
×
Save as Personal and add changes to this tab that will be seen only by you. Learn more ›
×
You can save this tab as Personal to edit and correct it or add notes. All changes will be seen only by you. Learn more »
launch autoscroll
font size
0
reset
how to read this tab
guitar tuner
edit
Autoscroll
slow
fast
+/-
esc
set tempo
stop
Author
About this tab version
Specific tab for one of the two guitars in this song. Was this info helpful? Yes No
Trail of Dead tend to use alternative tunings for a lot of songs 
but this song easily works in standard tuning.
Tab is based on the guitar that can be heard panned hard right.

[INTRO/BRIDGE] 
e|---------0---------------0-------|---------0---------------0-------|
B|---------------------------------|---------------------------------|
G|-----2-0-----2-0---0-2-0-----2-0-|---0-2-0-----2-0---0-2-0-----2-0-|
D|---------------------------------|-2---2-------2-------2-------2---|   { x2 }
A|-3---------------3---------------|---------------------------------|
E|---------------------------------|---------------------------------|


[VERSE] x2

e|----------3-----3-|---------3-------|---------5-------|----------5-------|
B|------5-----5-----|-----5-----5-----|-----6-------6---|------6-----6---6-|
G|----5---5-----5---|---5---5-----5/7-|---7---7-------7-|----7---7-----7---|
D|------------------|-----------------|-----------------|------------------|
A|-(3)--------------|-----------------|-----------------|------------------|
E|------------------|-----------------|-----------------|------------------|

e|-------------8---------|------------8-8-------|---------3-------|---------3-----3-|
B|-------10--------10----|------10--------10----|-----5-------5---|-----5-----5-----|
G|----10----10--------10-|---10----10--------10-|---5---5-------5-|---5---5-----5---|
D|-----------------------|----------------------|-----------------|-----------------|
A|-----------------------|----------------------|-----------------|-----------------|
E|-----------------------|----------------------|-----------------|-----------------|


*********************************** 

[BRIDGE] 
e|---------0---------------0-------|---------0---------------0-------|
B|---------------------------------|---------------------------------|
G|-----2-0-----2-0---0-2-0-----2-0-|---0-2-0-----2-0---0-2-0-----2-0-|
D|---------------------------------|-2---2-------2-------2-------2---|    
A|-3---------------3---------------|---------------------------------|
E|---------------------------------|---------------------------------|

[VERSE] x2

e|----------3-----3-|---------3-------|---------5-------|----------5-------|
B|------5-----5-----|-----5-----5-----|-----6-------6---|------6-----6---6-|
G|----5---5-----5---|---5---5-----5/7-|---7---7-------7-|----7---7-----7---|
D|------------------|-----------------|-----------------|------------------|
A|-(3)--------------|-----------------|-----------------|------------------|
E|------------------|-----------------|-----------------|------------------|

e|-------------8---------|------------8-8-------|---------3-------|---------3-----3-|
B|-------10--------10----|------10--------10----|-----5-------5---|-----5-----5-----|
G|----10----10--------10-|---10----10--------10-|---5---5-------5-|---5---5-----5---|
D|-----------------------|----------------------|-----------------|-----------------|
A|-----------------------|----------------------|-----------------|-----------------|
E|-----------------------|----------------------|-----------------|-----------------|


*********************************** 

[CHORUS]

e|---------7---|---------3---|---------3---|---------3---|
B|-----8-------|-----5-------|-----5-------|-----5-------|
G|-9-----9-----|-4-----4-----|-5-----5-----|-4-----4-----| { x3 }
D|-------------|-------------|-------------|-------------|
A|-------------|-------------|-------------|-------------|
E|-------------|-------------|-------------|-------------|


*********************************** 

[BRIDGE] 
e|---------0---------------0-------|---------0---------------0-------|
B|---------------------------------|---------------------------------|
G|-----2-0-----2-0---0-2-0-----2-0-|---0-2-0-----2-0---0-2-0-----2-0-|
D|---------------------------------|-2---2-------2-------2-------2---|    
A|-3---------------3---------------|---------------------------------|
E|---------------------------------|---------------------------------|

[VERSE] x2

e|----------3-----3-|---------3-------|---------5-------|----------5-------|
B|------5-----5-----|-----5-----5-----|-----6-------6---|------6-----6---6-|
G|----5---5-----5---|---5---5-----5/7-|---7---7-------7-|----7---7-----7---|
D|------------------|-----------------|-----------------|------------------|
A|-(3)--------------|-----------------|-----------------|------------------|
E|------------------|-----------------|-----------------|------------------|

e|-------------8---------|------------8-8-------|---------3-------|---------3-----3-|
B|-------10--------10----|------10--------10----|-----5-------5---|-----5-----5-----|
G|----10----10--------10-|---10----10--------10-|---5---5-------5-|---5---5-----5---|
D|-----------------------|----------------------|-----------------|-----------------|
A|-----------------------|----------------------|-----------------|-----------------|
E|-----------------------|----------------------|-----------------|-----------------|


*********************************** 

[CHORUS]

e|---------7---|---------3---|---------3---|---------3---|
B|-----8-------|-----5-------|-----5-------|-----5-------|
G|-9-----9-----|-4-----4-----|-5-----5-----|-4-----4-----| { x4 }
D|-------------|-------------|-------------|-------------|
A|-------------|-------------|-------------|-------------|
E|-------------|-------------|-------------|-------------|


*********************************** 

[INTERVAL]

e|-----0-------|-----0-------|-3---0-------|-3---0-------|           |-3---0-------|-3---0-------|
B|-1-----3-1---|-1-----3-1---|-1-----3-1---|-1-----3-1---|           |-1-----3-1---|-1-----3-1---|
G|-------------|-------------|-0-----------|-0-----------|           |-0-----------|-0-----------|
D|-------------|-------------|-------------|-------------|  { x3 } , |-------------|-------------|
A|-------------|-------------|-------------|-------------|           |-------------|-------------|
E|-------------|-------------|-------------|-------------|           |-------------|-------------|


*********************************** 

[BRIDGE]  
(tempo slows down)
e|---------0---------------0-------|
B|---------------------------------|
G|---0-2-0-----2-0---0-2-0-----2-0-|
D|-----x-------x-------x-------x---|   { x2 }
A|-3---3-------3---3---3-------3---|
E|---------------------------------|

[VERSE] x2 
(alternates between plucking and strumming all notes together) 

e|----------3-----3-|---------3-------|---------5-------|----------5-------|
B|------5-----5-----|-----5-----5-----|-----6-------6---|------6-----6---6-|
G|----5---5-----5---|---5---5-----5/7-|---7---7-------7-|----7---7-----7---|
D|------------------|-----------------|-----------------|------------------|
A|-(3)--------------|-----------------|-----------------|------------------|
E|------------------|-----------------|-----------------|------------------|

e|-------------8---------|------------8-8-------|---------3-------|---------3-----3-|
B|-------10--------10----|------10--------10----|-----5-------5---|-----5-----5-----|
G|----10----10--------10-|---10----10--------10-|---5---5-------5-|---5---5-----5---|
D|-----------------------|----------------------|-----------------|-----------------|
A|-----------------------|----------------------|-----------------|-----------------|
E|-----------------------|----------------------|-----------------|-----------------|


*********************************** 

[CHORUS]

e|---------7---|---------3---|---------3---|---------3---|
B|-----8-------|-----5-------|-----5-------|-----5-------|
G|-9-----9-----|-4-----4-----|-5-----5-----|-4-----4-----| { x4 }
D|-------------|-------------|-------------|-------------|
A|-------------|-------------|-------------|-------------|
E|-------------|-------------|-------------|-------------|


*********************************** 

[END]
e|---------------------------------|
B|-1-------------------------------|
G|-2-------------------------------|
D|-0-------------------------------|
A|---------------------------------|
E|---------------------------------|



*********************************** 

| x Dead note 
| / Slide-up 

*********************************** 

            
            
Suggest correction
Creating personal tab
Creating personal tab
You can edit any tab online and save it as your Personal.

You can edit, replace or remove any tab part or add personal notes – all changes will be seen only by you.

Personal tabs can be accessed anytime from any device, even offline.
Learn more »
Give kudos to tab author, rate the tab!
1 2 3 4 5
comments
print report bad tab
guest
You may want to rate the tab now too:
select rating
Wanna post a correction for this tab? Suggest correction