Oops, an error
Loading. Please wait.
We have an official Take On Me tab made by UG professional guitarists. Check out the tab »
×
by A-ha
9,148 views 45 this week
no commentswrite comment
1 2 3 4 5
x 10
add to favorites
×
Save as Personal and add changes to this tab that will be seen only by you. Learn more ›
×
You can save this tab as Personal to edit and correct it or add notes. All changes will be seen only by you. Learn more »
launch autoscroll
font size
0
reset
guitar tuner
backing track
0:00
0:00
edit
Autoscroll
slow
fast
+/-
esc
set tempo
stop
Author
Difficulty
intermediate
Band : A-Ha
Song : Take on me

Tempo : 85 bpm

[Intro] 00:08
G|-----6------|-----6------|---4----4----4----4-----4/4----4/4--|
D|-------7----|-------7----|------------------------------------|
A|---2--------|---2--------|-2---2/2---2---2/2---2/2----2/2-----|
E|------------|------------|------------------------------------|

00:19
G|-----------------------------|
D|------2-2--------------------|
A|-2-2------2-------5--5-4-----| x 3
E|--------------5-5------------|

[Verse1] 00:36
G|-----------------------------|
D|------2-2--------------------|
A|-2-2------2-------5--5-4-----| x 2
E|--------------5-5------------|
00:48
G|------------------------------|
D|------2--2-2--4--4-4--0--0-0--|
A|-2-2--------------------------|
E|------------------------------|

[Chorus 1]
G|-------||-----------------------------------|
D|-------||-----------------------------------|
A|-4-4-2-||-------------------------5-*-5-5---| X2
E|-------||-5-5-5-5-4-4-4-4-2-2-2-2-----------|

G|----------------------------------|- |-------------------------|
D|----------------------------------|- |-------------------------|
A|-------------------------5-*-5-5--|- X1 |-7~~-7-7-7--7--5--2---|
E|-5--5----4--4----2--2-------------|- |-------------------------|


[Verse2] 01:15
G|-----------------------------|
D|------2-2--------------------|
A|-2-2------2-------5--5-4-----| x 2
E|--------------5-5------------|

01:28
G|------------------------------|
D|------2--2-2--4--4-4--0--0-0--|
A|-2-2--------------------------|
E|------------------------------|


[Chorus2] 01:33
G|-------||-----------------------------------|
D|-------||-----------------------------------|
A|-4-4-2-||-------------------------5-*-5-5---| X2
E|-------||-5-5-5-5-4-4-4-4-2-2-2-2-----------|

G|----------------------------------|-    |---------------------|
D|----------------------------------|-    |---------------------|
A|-------------------------5-*-5-5--|- X1 |-7~~-7-7-7--7--5--2--|
E|-5--5----4--4----2--2-------------|-    |---------------------|

[Bridge] 01:57 02:13
G|--4----4---4----4--|----4/4---4/4---4/4---4/4-|----------------------|
D|-------------------|--------------------------|------2-2-------2-2---|
A|-2--2/2---2--2/2---|-2/2---2/2---2/2---2/2----|-2-2--------2-2-------|
E|-------------------|--------------------------|----------------------|

02:19
G|-----------------------------|
D|------2-2--------------------|
A|-2-2------2-------5--5-4-----| x3
E|--------------5-5------------|


[Verse3] 02:35
G|-----------------------------|
D|------2-2--------------------|
A|-2-2------2-------5--5-4-----| x2
E|--------------5-5------------|

G|------------------------------|
D|------2--2-2--4--4-4--0--0-0--|
A|-2-2--------------------------|
E|------------------------------|


[Chorus3] 02:53 play X2
G|-------||-------------------------------------|
D|-------||-------------------------------------|
A|-4-4-2-||-------------------------5-*-5-5-----|- X2
E|-------||-5-5-5-5-4-4-4-4-2-2-2-2-------------|
+
G|-----------------------------------|
D|-----------------------------------|
A|-------------------------5-*-5-5---| X1
E|-5--5----4--4----2--2--------------|

then
G|-----------------------------------|
D|-----------------------------------|
A|-------------------------5-*-5-5---|
E|-5-5-5-5-4-4-4-4-2-2-2-2-----------|

03:32
G|------------------------------------|
D|------------------------------------|
A|-------------------------5--5--5----| Fading out...
E|-5---5---4---4-4--2---2----------5--|

END 03:47

Author's note : I am back on UltimateGuitar Tabs because I saw that 23737 musicians 
around the world had been using my work and I like the idea of sharing music with other musicians...
So please "rate" my tabs under Bruno Frenchy and look for me on You Tube for some videos 
(just a small selection of my work for now)...



************************************

| /  Slide up
| ~  Vibrato

************************************

            
            
Suggest correction
Creating personal tab
Creating personal tab
You can edit any tab online and save it as your Personal.

You can edit, replace or remove any tab part or add personal notes – all changes will be seen only by you.

Personal tabs can be accessed anytime from any device, even offline.
Learn more »
comments
print report bad tab
guest
You may want to rate the tab now too:
select rating
Wanna post a correction for this tab? Suggest correction