Oops, an error
Loading. Please wait.

Starbucks tab

version 1
version 1

Whole song

Interactive

by A
4,238 views 3 this week
7 commentsread comments
1 2 3 4 5
x 12
add to favorites
×
Save as Personal and add changes to this tab that will be seen only by you. Learn more ›
×
You can save this tab as Personal to edit and correct it or add notes. All changes will be seen only by you. Learn more »
launch autoscroll
font size
0
reset
how to read this tab
guitar tuner
edit
Autoscroll
slow
fast
+/-
esc
set tempo
stop
Author
Song: Starbucks
Artist: A
Album: Hi-Fi Serious
Tabbed By: Monkey_Guy

This song is AMAZING, enjoy!

    Intro                                                               
E------12-------------12-------------12-------------12------------------
B----------12-------------12-------------10-------------10--------------
G---9----------9--11----------11--9----------9--11----------11--9-------
D-----------------------------------------------------------------------
A-----------------------------------------------------------------------
E-----------------------------------------------------------------------
                                                                        

                                                                        
E---12------------12------------12--------------12------|---------------
B-------9-------------9-------------10------10------10--|---------------
G----------9--11---------11--9----------11--------------|---------------
D-------------------------------------------------------|---------------
A-------------------------------------------------------|---------------
E-------------------------------------------------------|---------------
                                                                        

    Verse (PM w/ 2nd Guitar - Not Needed)                               
E---------------------------------------|-------------------------------
B---------------------------------------|-------------------------------
G------------------4-----2-----4--7--4--|-------------------------------
D---2--6--2--6--2--4--4--2--2--4--7--4--|-------------------------------
A---2--6--2--6--2--2--4--0--2--2--5--2--|-------------------------------
E---0--4--0--4--0-----2-----0-----------|-------------------------------
                                                                        

    Chorus                                                              
E-----------------------------------------------------------------------
B-----------------------------------------------------------------------
G------4-----2-----4-----2-----4-----2-----4--------2--------4----------
D---2--4--4--2--2--4--4--2--2--4--4--2--2--4--4-----2-----2--4--4-------
A---2--2--4--0--2--2--4--0--2--2--4--0--2--2--4-----0-----2--2--4-------
E---0-----2-----0-----2-----0-----2-----0-----2-----------0-----2-------
                                                                        

                                                                        
E------|----------------------------------------------------------------
B------|----------------------------------------------------------------
G---2--|----------------------------------------------------------------
D---2--|----------------------------------------------------------------
A---0--|----------------------------------------------------------------
E------|----------------------------------------------------------------
                                                                        

    Bridge                                                             
E-----------------------------------------------------------------------
B---5-----------5--4-----------5-----------5--4-----------8-------------
G---4-----------4--4-----------4-----------4--4-----------7-------------
D---4-----------4--4-----------4-----------4--4-----------7-------------
A---2-----------2--2-----------2-----------2--2-----------5-------------
E-----------------------------------------------------------------------
                                                                        

                                                                        
E-----------------------------------------------------------------------
B---8--7-----------8-----------8--7-----------5-----------5--4----------
G---7--7-----------7-----------7--7-----------4-----------4--4----------
D---7--7-----------7-----------7--7-----------4-----------4--4----------
A---5--5-----------5-----------5--5-----------2-----------2--2----------
E-----------------------------------------------------------------------
                                                                        

                                                                        
E------------------------|----------------------------------------------
B------5-----------5--4--|----------------------------------------------
G------4-----------4--4--|----------------------------------------------
D------4-----------4--4--|----------------------------------------------
A------2-----------2--2--|----------------------------------------------
E------------------------|----------------------------------------------
                                                                        

    Bridge 2                                                            
E------------------------------------------------|----------------------
B------------------------------------------------|----------------------
G---------------------2-----------------------2--|----------------------
D---2-----4-----6-----2-----2-----4-----6-----2--|----------------------
A---2-----4-----6-----0-----2-----4-----6-----0--|----------------------
E---0-----2-----4-----------0-----2-----4--------|----------------------
                                                                        

Order is:

Intro
Intro and/or verse
Chorus
Intro and/or verse
Chorus
Bridge
Intro
Bridge 2
Chorus

            
            
Suggest correction
Creating personal tab
Creating personal tab
You can edit any tab online and save it as your Personal.

You can edit, replace or remove any tab part or add personal notes – all changes will be seen only by you.

Personal tabs can be accessed anytime from any device, even offline.
Learn more »
comments
print report bad tab
7 comments total. Showing first comments.
0 reply
getcha_grooveon 200 Apr 12, 2002 08:00 PM

nice tba and a great band. this song is amazing....and so is the album!

0 reply
w..w.we..wellyz 70 Apr 12, 2002 08:00 PM

aye this is very good, now anyone gonna do the rest of this album and the older one's too ;o) hehe cheers mate, real lazy people like me will love this. 'a' r feckin ace ! :o)

0 reply
Muse(ic) ROCKS! 398 Apr 18, 2002 08:00 PM

this tab is good but the chorus goes like this:

G----------------11-11-11-14-14-14
D-14-14-14-9-9-9-11-11-11-14-14-14
A-14-14-14-9-9-9-9-9--9--12-12-12
E-12-12-12-7-7-7------------------

thats rite just hope it comes out ok u got the right names of the chords E B F# A but just wrong order

guest
You may want to rate the tab now too:
select rating
Wanna post a correction for this tab? Suggest correction