Oops, an error
Loading. Please wait.

Every Second tab

1,495 views 3 this week
3 commentsread comments
1 2 3 4 5
x 3
add to favorites
×
Save as Personal and add changes to this tab that will be seen only by you. Learn more ›
×
You can save this tab as Personal to edit and correct it or add notes. All changes will be seen only by you. Learn more »
launch autoscroll
font size
0
reset
how to read this tab
guitar tuner
edit
Autoscroll
slow
fast
+/-
esc
set tempo
stop

e--------------------------------------------------------------------|
b--------------------------------------------------------------------|
g----------------------------------------------55555555555555--------|
d-55555555555555-00000000000000-22222222222222-55555555555555--------|
a-55555555555555-00000000000000-22222222222222-33333333333333--------|    2x
d-55555555555555-00000000000000-22222222222222-----------------------|

e
b
g
d-5---------------------------------------5-|
a-5---------------------------------------5-|
d-5---------------------------------------5-|
   the last drop in the bottle fell out
                     VERSE
e------------------------------------------------------------|
b------------------------------------------------------------|
g---------------------------------------------55555555555555-|
d-5555555555555-00000000000000-22222220000000-55555555555555-|
a-5555555555555-00000000000000-22222220000000-33333333333333-|
d-5555555555555-00000000000000-22222220000000----------------|
  ............. .............. ..............
                  PRE-CHORU 

                               |triplets|
                                 |   |       |   |
e-----------------------------------------------------|
b-----------------------------------------------------|
g-------------------------------555-555-----555-555---|
d-22222222222222-55555555555555-555-555--0--555-555---|
a-22222222222222-55555555555555-333-333--0--333-333---|
d-22222222222222-55555555555555----------0------------|
                  CHORUS
e-------------------------------------------------------------|
b-------------------------------------------------------------|
g----------------------------------------------55555555555555-|
d-55555555555555-00000000000000-22222222222222-55555555555555-|
a-55555555555555-00000000000000-22222222222222-33333333333333-|
d-55555555555555-00000000000000-22222222222222----------------|
   every second   everymoment this cant last for-ever

e-
b-
g-
d-5-------5-|
a-5-------5-|
d-5-------5-|

e-------------------------------------------------------------|
b-------------------------------------------------------------|
g----------------------------------------------55555555555555-|
d-55555555555555-00000000000000-22222220000000-55555555555555-|
a-55555555555555-00000000000000-22222220000000-33333333333333-|
d-55555555555555-00000000000000-22222220000000----------------|
  .............. .............. ..............

e----------------------------------------------------|
b----------------------------------------------------|
g-------------------------------555-555-----555-555--|
d-22222222222222-55555555555555-555-555--0--555-555--|
a-22222222222222-55555555555555-333-333--0--333-333--|
d-22222222222222-55555555555555----------0-----------|

e------------------------------------------------------------------|
b------------------------------------------------------------------|
g----------------------------------------------55555555555555------|
d-55555555555555-00000000000000-22222222222222-55555555555555------|     2x
a-55555555555555-00000000000000-22222222222222-33333333333333------|
d-55555555555555-00000000000000-22222222222222---------------------|

e-------------------------------------------------------------|
b-------------------------------------------------------------|
g----------------------------------------------55555555555555-|
d-55555555555555-00000000000000-22222220000000-55555555555555-|
a-55555555555555-00000000000000-22222220000000-33333333333333-|
d-55555555555555-00000000000000-22222220000000----------------|
  .............. .............. ..............

e-----------------------------------------------------------------|
b-----------------------------------------------------------------|
g----------------------------------------------55555555555555-----|
d-55555555555555-00000000000000-22222222222222-55555555555555-----|    4x
a-55555555555555-00000000000000-22222222222222-33333333333333-----|
d-55555555555555-00000000000000-22222222222222--------------------|


g-------------5-|
d-5---0---2---5-|
a-5---0---2---3-|
d-5---0---2-----|

            
            
Suggest correction
Creating personal tab
Creating personal tab
You can edit any tab online and save it as your Personal.

You can edit, replace or remove any tab part or add personal notes – all changes will be seen only by you.

Personal tabs can be accessed anytime from any device, even offline.
Learn more »
Give kudos to tab author, rate the tab!
1 2 3 4 5
comments
print report bad tab
3 comments total.
0 reply
achngeofpace14 10 Jun 07, 2006 01:59 PM

not accurate, it just plain sucks

0 reply
B4MV 58 Jan 09, 2007 04:33 PM

or ur just def

0 reply
rockobsesse 244 Mar 18, 2011 09:39 PM

lol, achngeofpace14 clearly did not get the memo that this song is in drop d tuning. what an idiot :P during the verse, you could write:

--------------------------------
--------------------------------
--------------------------------
----5-------5-------5-------5---
--5---5---5---5---5---5---5---5-
5-------5-------5-------5-------

--------------------------------
--------------------------------
--------------------------------
----4-------4-------4-------4---
--5---5---5---5---5---5---5---5-
5-------5-------5-------5-------

and for the ending, you could put:

------------------------------------------------------------------------------------------------------------------------
---------------------------------------------55555555555555-
55555555555555-44444444444444-22222222222222-55555555555555-
55555555555555-55555555555555-22222222222222-33333333333333-
55555555555555-44444444444444-22222222222222----------------

other than that, good job!

guest
You may want to rate the tab now too:
select rating
Wanna post a correction for this tab? Suggest correction