Oops, an error
Loading. Please wait.
We have an official Bad Vibrations tab made by UG professional guitarists. Check out the tab »
×
1,639 views 3 this week
1 commentread comment
1 2 3 4 5
1 last vote to show rating
add to favorites
×
Save as Personal and add changes to this tab that will be seen only by you. Learn more ›
×
You can save this tab as Personal to edit and correct it or add notes. All changes will be seen only by you. Learn more »
launch autoscroll
font size
0
reset
guitar tuner
edit
Autoscroll
slow
fast
+/-
esc
set tempo
stop
[Intro]

E |---------------------------------------------------------------------------|
B |---------------------------------------------------------------------------|
F#|---------------------------------------------------------------------------|
B |-0-0-0-0--0----0--0-0-0---0-0-0-0--0-1--0-0-0-4----0-0-0-0--0----0--0-0-0--|

E |---------------------------------------------------------------------------|
B |---------------------------------------------------------------------------|
F#|---------------------------------------------------------------------------|
B |-8--8-8--8-8--5--5-5--5---0-0-0-0--0----0--0-0-0---0-0-0-0--0-1--0-0-0-4---|

E |---------------------------------------------------------------------------|
B |---------------------------------------------------------------------------|
F#|---------------------------------------------------------------------------|
B |-0-0-0-0--0-----0--0-0-0--5--5-5--5--11--11-11--11-------------------------|

[Verse]

E |---------------------------------------------------------------------------|
B |---------------------------------------------------------------------------|
F#|---------------------------------------------------------------------------|
B |-0-0-0-0-0-0-0-0-0-0-0-0-0-0-0-0-0-0-0-0-0-0-0-0-0-0-0-0-0-0-5-5-5-5-------|

E |---------------------------------------------------------------------------|
B |---------------------------------------------------------------------------|
F#|---------------------------------------------------------------------------|
B |-8-8-8-8-8-8-8-8-8-8-8-8-8-8-8-8-8-8-8-8-8-8-8-8-8-8-8-8-8-11-11-11-11-----|

E |---------------------------------------------------------------------------|
B |---------------------------------------------------------------------------|
F#|---------------------------------------------------------------------------|
B |-0-0-0-0-0-0-0-0-0-0-0-0-0-0-0-0-0-0-0-0-0-0-0-0-0-0-0-0-0-0-5-5-5-5-------|

E |---------------------------------------------------------------------------|
B |---------------------------------------------------------------------------|
F#|---------------------------------------------------------------------------|
B |-8-8-8-8-8-8-8-8-8-8-8-8-8-8-8-8-8-8-8-8-8-8-8-8-8-8-8-8-8-7-7-7-7---------|

[PreChorus]

E |---------------------------------------------------------------------------|
B |---------------------------------------------------------------------------|
F#|---------------------------------------------------------------------------|
B |-8-8-8-8--8--8-8-8-8-8--8--5-5-5--5--5-5-5-5--5---0-0-0-0--0--0-0-0-0------|

E |---------------------------------------------------------------------------|
B |---------------------------------------------------------------------------|
F#|------------------------------------------------------------------8-7------|
B |-3-3-3-3--3--3-3--3--3--3---3--8-8-8---8--8-8-8-8-8--8--5-5-5---5----------|

[Chorus]

E |---------------------------------------------------------------------------|
B |---------------------------------------------------------------------------|
F#|---------------------------------------------------------------------------|
B |-8-8-8-8-8-8-8-8-8-8-8-8-8-8-8-8-0-0-0-0-0-0-0-0-0-3-3-3-3-3-3-3-3-3-------|

E |---------------------------------------------------------------------------|
B |---------------------------------------------------------------------------|
F#|---------------------------------------------------------------------------|
B |-8-8-8-8-8-8-8-8-8-8-8-8-8-8-8-8-0-0-0-0-0-0-0-0-0-3-3-3-3-3-3-3-3-3-0-----|

[Verse 2]

E |---------------------------------------------------------------------------|
B |---------------------------------------------------------------------------|
F#|---------------------------------------------------------------------------|
B |-0-0-0-0-0-0-0-0-0-0-0-0-0-0-0-0-0-0-0-0-0-0-0-0-0-0-0-0-0-0-5-5-5-5-------|

E |---------------------------------------------------------------------------|
B |---------------------------------------------------------------------------|
F#|---------------------------------------------------------------------------|
B |-8-8-8-8-8-8-8-8-8-8-8-8-8-8-8-8-8-8-8-8-8-8-8-8-8-8-8-8-8-11-11-11-11-----|

E |---------------------------------------------------------------------------|
B |---------------------------------------------------------------------------|
F#|---------------------------------------------------------------------------|
B |-0-0-0-0-0-0-0-0-0-0-0-0-0-0-0-5-5-5-5-5-5-5-5-5-5-5-5-5-5-5-5-5-5-5-------|

E |---------------------------------------------------------------------------|
B |---------------------------------------------------------------------------|
F#|---------------------------------------------------------------------------|
B |-8-8-8-8-8-8-8-8-8-8-8-8-8-8-8---8----7------------------------------------|

[PreChorus]

E |---------------------------------------------------------------------------|
B |---------------------------------------------------------------------------|
F#|---------------------------------------------------------------------------|
B |-8-8-8-8--8--8-8-8-8-8--8--5-5-5--5--5-5-5-5--5---0-0-0-0--0--0-0-0-0------|

E |---------------------------------------------------------------------------|
B |---------------------------------------------------------------------------|
F#|------------------------------------------------------------------8-7------|
B |-3-3-3-3--3--3-3--3--3--3---3--8-8-8---8--8-8-8-8-8--8--5-5-5---5----------|

[Chorus]

E |---------------------------------------------------------------------------|
B |---------------------------------------------------------------------------|
F#|---------------------------------------------------------------------------|
B |-8-8-8-8-8-10-10-10-10-10-10-10-10-0-0-0-0-0-0-0-0-0-3-3-3-3-3-3-3-3-3-----|

E |---------------------------------------------------------------------------|
B |---------------------------------------------------------------------------|
F#|---------------------------------------------------------------------------|
B |-8-8-8-8-8-8-8-8-8-8-8-8-8-8-8-8-0-0-0-0-0-0-0-0-0-3-3-3-3-3-3-3-3-3-------|

E |---------------------------------------------------------------------------|
B |---------------------------------------------------------------------------|
F#|---------------------------------------------------------------------------|
B |-----------------8-8-8-8-8-8-8-8-0-0-0-0-0-0-0-0-0-3-3-3-3-3-3-3-3-3-------|

E |---------------------------------------------------------------------------|
B |---------------------------------------------------------------------------|
F#|---------------------------------------------------------------------------|
B |-8-8-8-8-8-8-8-8-8-8-8-8-8-8-8-8-0-0-0-0-0-0-0-0-0-3-3-3-3-3-3-3-3-3-------|

[Breakdown]

E |---------------------------------------------------------------------------|
B |---------------------------------------------------------------------------|
F#|---------------------------------------------------------------------------|
B |-0---------------0----------------0-----------0--0--0-0--0--0-0--0-0-0-0-0-|

E |------------------------------------------------------------------------------------------|
B |------------------------------------------------------------------------------------------|
F#|------------------------------------------------------------------------------------------|
B |-0-0--0-0---0-0---0-0--0-0----0-0---0-0---0-0--0-0---0-0-1--0-0-0--0-0--0-0---0-0--0-0----|

E |------------------------------------------------------------------------------------------|
B |------------------------------------------------------------------------------------------|
F#|------------------------------------------------------------------------------------------|
B |-12p0-12p0-11p0-12p0-11p0-12p0-11p0-8h10p8--12p0-12p0-11p0-12p0-11p0-12p0-11p0-8h10p8-----|

E |------------------------------------------------------------------------------------------|
B |------------------------------------------------------------------------------------------|
F#|------------------------------------------------------------------------------------------|
B |-12p0-12p0-11p0-12p0-11p0-12p0-11p0-8h10p8--12p0-12p0-11p0-12p0-11p0-12p0-11p0---1---4----|

E |---------------------------------------------------------------------------|
B |---------------------------------------------------------------------------|
F#|---------------------------------------------------------------------------|
B |-0-0--0-0---0-0---0-0--0-0----0-0-0-0-0-0---1--4--0------------------------|


************************************

| x   Dead note
| g   Grace note
| (n) Ghost note
| h   Hammer-on
| p   Pull-off
| r   Release
| >   Accented note
| t   Tapping
| b   Bend
| br  Bend release
| pb  Pre-bend
| pbr Pre-bend release
| /   Slide up
| \   Slide down
| ~   Vibrato
| s   Slap
| P   Pop
| PM  Palm mute
| TR  Trill
| N   Tremolo

************************************

            
            
Suggest correction
Creating personal tab
Creating personal tab
You can edit any tab online and save it as your Personal.

You can edit, replace or remove any tab part or add personal notes – all changes will be seen only by you.

Personal tabs can be accessed anytime from any device, even offline.
Learn more »
Give kudos to tab author, rate the tab!
1 2 3 4 5
comments
print report bad tab
1 comment total.
0 reply
XxThreeCheersxX 13,640 Sep 08, 2016 07:10 PM

I was just about to tab this but you beat me to it, great tab!!

guest
You may want to rate the tab now too:
select rating
Wanna post a correction for this tab? Suggest correction