Oops, an error
Loading. Please wait.

If I Leave tab

version 3
version 3

Whole song

Interactive

2,926 views 1 this week
1 commentread comment
1 2 3 4 5
1 last vote to show rating
add to favorites
×
Save as Personal and add changes to this tab that will be seen only by you. Learn more ›
×
You can save this tab as Personal to edit and correct it or add notes. All changes will be seen only by you. Learn more »
launch autoscroll
font size
0
reset
how to read this tab
guitar tuner
edit
Autoscroll
slow
fast
+/-
esc
set tempo
stop
Song: If I Leave
Artist: A Day To Remember
Album: What Seperates Me From You



Intro:

Guitar I keeps Repeating this:

|-----3---3---3--3--3---------|
|----1---1---1--1--1----------|
|---2-------------------------|
|------3----------------------|
|----------3---3--3-----------|
|-----------------------------|



|-----3---3---3--3--3---------|
|----1---1---1--1--1----------|
|---2-------------------------|
|------3----------------------|
|----------3---3--3-----------|
|-----------------------------|

Guitar I does this two times then whole band comes in and Guitar I repeats till verse.


Guitar II

|--x--|
|--x--|
|--x--|
|--x--|
|--x--|
|--x--|



|--------------------------------------------------------------------------|
|--------------------------------------------------------------------------|
|--------------------------------5-5-5-5-5-5-------------------------------|
|--7-7-7-7-7-7-7---3-3-3-3-3-3---5-5-5-5-5-5---5-5-5-5-5-5-5---------------|
|--7-7-7-7-7-7-7---3-3-3-3-3-3---3-3-3-3-3-3---5-5-5-5-5-5-5---------------|
|--7-7-7-7-7-7-7---3-3-3-3-3-3-----------------5-5-5-5-5-5-5---------------|


|--------------------------------------------------------------------------|
|--------------------------------------------------------------------------|
|--------------------------------5-5-5-5-5-5-------------------------------|
|--7-7-7-7-7-7-7---3-3-3-3-3-3---5-5-5-5-5-5---5-5-5-5-5-5-5---------------|
|--7-7-7-7-7-7-7---3-3-3-3-3-3---3-3-3-3-3-3---5-5-5-5-5-5-5---------------|
|--7-7-7-7-7-7-7---3-3-3-3-3-3-----------------5-5-5-5-5-5-5---------------|


|--------------------------------------------------------------------------|
|--------------------------------------------------------------------------|
|--------------------------------5-5-5-5-5-5-------------------------------|
|--7-7-7-7-7-7-7---3-3-3-3-3-3---5-5-5-5-5-5---5-5-5-5-5-5-5---------------|
|--7-7-7-7-7-7-7---3-3-3-3-3-3---3-3-3-3-3-3---5-5-5-5-5-5-5---------------|
|--7-7-7-7-7-7-7---3-3-3-3-3-3-----------------5-5-5-5-5-5-5---------------|


|--------------------------------------------------------------------------|
|--------------------------------------------------------------------------|
|-------------------------------5-5-5-5-5-5--------------------------------|
|-7-7-7-7-7-7-7---3-3-3-3-3-3---5-5-5-5-5-5---5-5-5-5-5-5-5-5--3-3-3-3---5-|
|-7-7-7-7-7-7-7---3-3-3-3-3-3---3-3-3-3-3-3---5-5-5-5-5-5-5-5--3-3-3-3--5--|
|-7-7-7-7-7-7-7---3-3-3-3-3-3-----------------5-5-5-5-5-5-5-5--3-3-3-3-5---|


Verse:

Both Guitars:



|--------------------------------------------------------------------------|
|--------------------------------------------------------------------------|
|--------------------------------------------------------------------------|
|-3--3-3-3-3---3-3-3-3-----5/---3--3-3-3-3--3-3-3-----5/--7--7-7-7-7-7--7-7|
|-3--3-3-3-3---3-3-3-3----5/----3--3-3-3-3--3-3-3----5/---7--7-7-7-7-7--7-7|
|-3--3-3-3-3---3-3-3-3---5/-----3--3-3-3-3--3-3-3---5/----7--7-7-7-7-7--7-7|
  *  *******   *******          *  *******  *****         *  *********  ***


|--------------------------------------------------------------------------|
|--------------------------------------------------------------------------|
|--------------------------------------------------------------------------|
|-7-7-----7/---5--5-5-5-5--5-5-5-5-----------------------------------------|
|-7-7----7/----5--5-5-5-5--5-5-5-5-----------------------------------------|
|-7-7---7/-----5--5-5-5-5--5-5-5-5-----------------------------------------|
  ***          *  *******  *******


|--------------------------------------------------------------------------|
|--------------------------------------------------------------------------|
|--------------------------------------------------------------------------|
|-3--3-3-3-3---3-3-3-3-----5/---3--3-3-3-3--3-3-3-----5/--7--7-7-7-7-7--7-7|
|-3--3-3-3-3---3-3-3-3----5/----3--3-3-3-3--3-3-3----5/---7--7-7-7-7-7--7-7|
|-3--3-3-3-3---3-3-3-3---5/-----3--3-3-3-3--3-3-3---5/----7--7-7-7-7-7--7-7|
  


|--------------------------------------------------------------------------|
|--------------------------------------------------------------------------|
|--------------------------------------------------------------------------|
|-7-7-----7/---5--5-5-5-5--5-5-5-5-----------------------------------------|
|-7-7----7/----5--5-5-5-5--5-5-5-5-----------------------------------------|
|-7-7---7/-----5--5-5-5-5--5-5-5-5-----------------------------------------|


Pre-Chorus:

|--------------------------------------------------------------------------|
|--------------------------------------------------------------------------|
|--------------------------------------------------------------------------|
|-7-7-7-7-7-7-7-7-7-7--5-5-5-5-5-5-5-5-5--3-3-3-3-3-3-3-3-3----------------|
|-7-7-7-7-7-7-7-7-7-7--5-5-5-5-5-5-5-5-5--3-3-3-3-3-3-3-3-3----------------|
|-7-7-7-7-7-7-7-7-7-7--5-5-5-5-5-5-5-5-5--3-3-3-3-3-3-3-3-3----------------|



|--------------------------------------------------------------------------|
|--------------------------------------------------------------------------|
|--------------------------------------------------------------------------|
|-7-7-7-7-7-7-7-7-7-7--5-5-5-5-5-5-5-5-5--3-3-3-3-3-3-3-3-3----------------|
|-7-7-7-7-7-7-7-7-7-7--5-5-5-5-5-5-5-5-5--3-3-3-3-3-3-3-3-3----------------|
|-7-7-7-7-7-7-7-7-7-7--5-5-5-5-5-5-5-5-5--3-3-3-3-3-3-3-3-3----------------|


Chorus:


|--------------------------------------------------------------------------|
|--------------------------------------------------------------------------|
|--5-5-5-5-5-5-5-5-5-5-5-5-5-5---------------------------------------------|
|--5-5-5-5-5-5-5-5-5-5-5-5-5-5---5-5-5-5-5-5-5-5-5-5-5-5-------------------|
|--3-3-3-3-3-3-3-3-3-3-3-3-3-3---5-5-5-5-5-5-5-5-5-5-5-5-------------------|
|--------------------------------5-5-5-5-5-5-5-5-5-5-5-5-------------------|


|--------------------------------------------------------------------------|
|--------------------------------------------------------------------------|
|--------------------------------------------------------------------------|
|--7-7-7-7-7-7-7-7-7-7-7--5-5-5-5-5-5-5-5-5-5-5--3-3-3-3-3-3-3-3--5-5-5-5-5|
|--7-7-7-7-7-7-7-7-7-7-7--5-5-5-5-5-5-5-5-5-5-5--3-3-3-3-3-3-3-3--5-5-5-5-5|
|--7-7-7-7-7-7-7-7-7-7-7--5-5-5-5-5-5-5-5-5-5-5--3-3-3-3-3-3-3-3--5-5-5-5-5|



|-----3---3---3--3--3---------|
|----1---1---1--1--1----------|
|---2-------------------------|
|------3----------------------|
|----------3---3--3-----------|
|-----------------------------|


Verse 2:


|--------------------------------------------------------------------------|
|--------------------------------------------------------------------------|
|--------------------------------------------------------------------------|
|-3--3-3-3-3---3-3-3-3-----5/---3--3-3-3-3--3-3-3-----5/--7--7-7-7-7-7--7-7|
|-3--3-3-3-3---3-3-3-3----5/----3--3-3-3-3--3-3-3----5/---7--7-7-7-7-7--7-7|
|-3--3-3-3-3---3-3-3-3---5/-----3--3-3-3-3--3-3-3---5/----7--7-7-7-7-7--7-7|
  *  *******   *******          *  *******  *****         *  *********  ***


|--------------------------------------------------------------------------|
|--------------------------------------------------------------------------|
|--------------------------------------------------------------------------|
|-7-7-----7/---5--5-5-5-5--5-5-5-5-----------------------------------------|
|-7-7----7/----5--5-5-5-5--5-5-5-5-----------------------------------------|
|-7-7---7/-----5--5-5-5-5--5-5-5-5-----------------------------------------|
  ***          *  *******  *******


|--------------------------------------------------------------------------|
|--------------------------------------------------------------------------|
|--------------------------------------------------------------------------|
|-3--3-3-3-3---3-3-3-3-----5/---3--3-3-3-3--3-3-3-----5/--7--7-7-7-7-7--7-7|
|-3--3-3-3-3---3-3-3-3----5/----3--3-3-3-3--3-3-3----5/---7--7-7-7-7-7--7-7|
|-3--3-3-3-3---3-3-3-3---5/-----3--3-3-3-3--3-3-3---5/----7--7-7-7-7-7--7-7|
  


|--------------------------------------------------------------------------|
|--------------------------------------------------------------------------|
|--------------------------------------------------------------------------|
|-7-7-----7/---5--5-5-5-5--5-5-5-5-----------------------------------------|
|-7-7----7/----5--5-5-5-5--5-5-5-5-----------------------------------------|
|-7-7---7/-----5--5-5-5-5--5-5-5-5-----------------------------------------|


Pre-Chorus:

|--------------------------------------------------------------------------|
|--------------------------------------------------------------------------|
|--------------------------------------------------------------------------|
|-7-7-7-7-7-7-7-7-7-7--5-5-5-5-5-5-5-5-5--3-3-3-3-3-3-3-3-3----------------|
|-7-7-7-7-7-7-7-7-7-7--5-5-5-5-5-5-5-5-5--3-3-3-3-3-3-3-3-3----------------|
|-7-7-7-7-7-7-7-7-7-7--5-5-5-5-5-5-5-5-5--3-3-3-3-3-3-3-3-3----------------|



|--------------------------------------------------------------------------|
|--------------------------------------------------------------------------|
|--------------------------------------------------------------------------|
|-7-7-7-7-7-7-7-7-7-7--5-5-5-5-5-5-5-5-5--3-3-3-3-3-3-3-3-3----------------|
|-7-7-7-7-7-7-7-7-7-7--5-5-5-5-5-5-5-5-5--3-3-3-3-3-3-3-3-3----------------|
|-7-7-7-7-7-7-7-7-7-7--5-5-5-5-5-5-5-5-5--3-3-3-3-3-3-3-3-3----------------|


Chorus 2:


|--------------------------------------------------------------------------|
|--------------------------------------------------------------------------|
|--5-5-5-5-5-5-5-5-5-5-5-5-5-5---------------------------------------------|
|--5-5-5-5-5-5-5-5-5-5-5-5-5-5---5-5-5-5-5-5-5-5-5-5-5-5-------------------|
|--3-3-3-3-3-3-3-3-3-3-3-3-3-3---5-5-5-5-5-5-5-5-5-5-5-5-------------------|
|--------------------------------5-5-5-5-5-5-5-5-5-5-5-5-------------------|


|--------------------------------------------------------------------------|
|--------------------------------------------------------------------------|
|--------------------------------------------------------------------------|
|--7-7-7-7-7-7-7-7-7-7-7--5-5-5-5-5-5-5-5-5-5-5--3-3-3-3-3-3-3-3--5-5-5-5-5|
|--7-7-7-7-7-7-7-7-7-7-7--5-5-5-5-5-5-5-5-5-5-5--3-3-3-3-3-3-3-3--5-5-5-5-5|
|--7-7-7-7-7-7-7-7-7-7-7--5-5-5-5-5-5-5-5-5-5-5--3-3-3-3-3-3-3-3--5-5-5-5-5|



|--------------------------------------------------------------------------|
|--------------------------------------------------------------------------|
|--5-5-5-5-5-5-5-5-5-5-5-5-5-5---------------------------------------------|
|--5-5-5-5-5-5-5-5-5-5-5-5-5-5---5-5-5-5-5-5-5-5-5-5-5-5-------------------|
|--3-3-3-3-3-3-3-3-3-3-3-3-3-3---5-5-5-5-5-5-5-5-5-5-5-5-------------------|
|--------------------------------5-5-5-5-5-5-5-5-5-5-5-5-------------------|


|--------------------------------------------------------------------------|
|--------------------------------------------------------------------------|
|--------------------------------------------------------------------------|
|--7-7-7-7-7-7-7-7-7-7-7--5-5-5-5-5-5-5-5-5-5-5--3-3-3-3-3-3-3-3--5-5-5-5-5|
|--7-7-7-7-7-7-7-7-7-7-7--5-5-5-5-5-5-5-5-5-5-5--3-3-3-3-3-3-3-3--5-5-5-5-5|
|--7-7-7-7-7-7-7-7-7-7-7--5-5-5-5-5-5-5-5-5-5-5--3-3-3-3-3-3-3-3--5-5-5-5-5|



Bridge:


|--------------------------------------------------------------------------|
|--------------------------------------------------------------------------|
|----5~--------------------------------------------------------------------|
|----5~---------3~---------7~------5~--------------------------------------|
|----3~---------3~---------7~------5~--------------------------------------|
|---------------3~---------7~------5~--------------------------------------|



|--------------------------------------------------------------------------|
|--------------------------------------------------------------------------|
|----5~--------------------------------------------------------------------|
|----5~---------3~---------7~------5~--------------------------------------|
|----3~---------3~---------7~------5~--------------------------------------|
|---------------3~---------7~------5~--------------------------------------|


|--------------------------------------------------------------------------|
|--------------------------------------------------------------------------|
|----5~--------------------------------------------------------------------|
|----5~---------3~---------7~------5~--------------------------------------|
|----3~---------3~---------7~------5~--------------------------------------|
|---------------3~---------7~------5~--------------------------------------|



|--------------------------------------------------------------------------|
|--------------------------------------------------------------------------|
|----5~--------------------------------------------------------------------|
|----5~---------3~---------7-7-7-7-7-7---5-5-5-5-5-------------------------|
|----3~---------3~---------7-7-7-7-7-7---5-5-5-5-5-------------------------|
|---------------3~---------7-7-7-7-7-7---5-5-5-5-5-------------------------|
                           ***********   *********

Chorus 3:


|--------------------------------------------------------------------------|
|--------------------------------------------------------------------------|
|--5-5-5-5-5-5-5-5-5-5-5-5-5-5---------------------------------------------|
|--5-5-5-5-5-5-5-5-5-5-5-5-5-5---5-5-5-5-5-5-5-5-5-5-5-5-------------------|
|--3-3-3-3-3-3-3-3-3-3-3-3-3-3---5-5-5-5-5-5-5-5-5-5-5-5-------------------|
|--------------------------------5-5-5-5-5-5-5-5-5-5-5-5-------------------|
   ***************************   ***********************

|--------------------------------------------------------------------------|
|--------------------------------------------------------------------------|
|--------------------------------------------------------------------------|
|--7-7-7-7-7-7-7-7-7-7-7--5-5-5-5-5-5-5-5-5-5-5--3-3-3-3-3-3-3-3--5-5-5-5-5|
|--7-7-7-7-7-7-7-7-7-7-7--5-5-5-5-5-5-5-5-5-5-5--3-3-3-3-3-3-3-3--5-5-5-5-5|
|--7-7-7-7-7-7-7-7-7-7-7--5-5-5-5-5-5-5-5-5-5-5--3-3-3-3-3-3-3-3--5-5-5-5-5|
   *********************  *********************  ***************  


|--------------------------------------------------------------------------|
|--------------------------------------------------------------------------|
|--5-5-5-5-5-5-5-5-5-5-5-5-5-5---------------------------------------------|
|--5-5-5-5-5-5-5-5-5-5-5-5-5-5---5-5-5-5-5-5-5-5-5-5-5-5-------------------|
|--3-3-3-3-3-3-3-3-3-3-3-3-3-3---5-5-5-5-5-5-5-5-5-5-5-5-------------------|
|--------------------------------5-5-5-5-5-5-5-5-5-5-5-5-------------------|


|--------------------------------------------------------------------------|
|--------------------------------------------------------------------------|
|--------------------------------------------------------------------------|
|--7-7-7-7-7-7-7-7-7-7-7--5-5-5-5-5-5-5-5-5-5-5--3-3-3-3-3-3-3-3--5-5-5-5-5|
|--7-7-7-7-7-7-7-7-7-7-7--5-5-5-5-5-5-5-5-5-5-5--3-3-3-3-3-3-3-3--5-5-5-5-5|
|--7-7-7-7-7-7-7-7-7-7-7--5-5-5-5-5-5-5-5-5-5-5--3-3-3-3-3-3-3-3--5-5-5-5-5|



|--------------------------------------------------------------------------|
|--------------------------------------------------------------------------|
|--5-5-5-5-5-5-5-5-5-5-5-5-5-5---------------------------------------------|
|--5-5-5-5-5-5-5-5-5-5-5-5-5-5---5-5-5-5-5-5-5-5-5-5-5-5-------------------|
|--3-3-3-3-3-3-3-3-3-3-3-3-3-3---5-5-5-5-5-5-5-5-5-5-5-5-------------------|
|--------------------------------5-5-5-5-5-5-5-5-5-5-5-5-------------------|


|--------------------------------------------------------------------------|
|--------------------------------------------------------------------------|
|--------------------------------------------------------------------------|
|--7-7-7-7-7-7-7-7-7-7-7--5-5-5-5-5-5-5-5-5-5-5--3-3-3-3-3-3-3-3--5-5-5-5-5|
|--7-7-7-7-7-7-7-7-7-7-7--5-5-5-5-5-5-5-5-5-5-5--3-3-3-3-3-3-3-3--5-5-5-5-5|
|--7-7-7-7-7-7-7-7-7-7-7--5-5-5-5-5-5-5-5-5-5-5--3-3-3-3-3-3-3-3--5-5-5-5-5|


Outro:


|-----3---3---3--3--3---------|
|----1---1---1--1--1----------|
|---2-------------------------|
|------3----------------------|
|----------3---3--3-----------|
|-----------------------------|


|--------------------------------------------------------------------------|
|--------------------------------------------------------------------------|
|--------------------------------5-5-5-5-5-5-------------------------------|
|--7-7-7-7-7-7-7---3-3-3-3-3-3---5-5-5-5-5-5---5-5-5-5-5-5-5---------------|
|--7-7-7-7-7-7-7---3-3-3-3-3-3---3-3-3-3-3-3---5-5-5-5-5-5-5---------------|
|--7-7-7-7-7-7-7---3-3-3-3-3-3-----------------5-5-5-5-5-5-5---------------|


|--------------------------------------------------------------------------|
|--------------------------------------------------------------------------|
|--------------------------------5~~~~~~~~~~~~~~~~~~~~~~~~~~~~~~~~~~~~~~~~~|
|--7-7-7-7-7-7-7---3-3-3-3-3-3---5~~~~~~~~~~~~~~~~~~~~~~~~~~~~~~~~~~~~~~~~~|
|--7-7-7-7-7-7-7---3-3-3-3-3-3---3~~~~~~~~~~~~~~~~~~~~~~~~~~~~~~~~~~~~~~~~~|
|--7-7-7-7-7-7-7---3-3-3-3-3-3---------------------------------------------|


Well,thats it. On the chorus i really cant hear the lead so im sorry.

Rate and Comment will appreciate either way!

            
            
Suggest correction
Creating personal tab
Creating personal tab
You can edit any tab online and save it as your Personal.

You can edit, replace or remove any tab part or add personal notes – all changes will be seen only by you.

Personal tabs can be accessed anytime from any device, even offline.
Learn more »
Give kudos to tab author, rate the tab!
1 2 3 4 5
comments
print report bad tab
1 comment total.
0 reply
kevindusi 10 Aug 23, 2017 10:27 AM

yay

guest
You may want to rate the tab now too:
select rating
Wanna post a correction for this tab? Suggest correction