Oops, an error
Loading. Please wait.
We have an official Im Made Of Wax Larry What Are You Made Of tab made by UG professional guitarists. Check out the tab »
×
7,467 views 1 this week
no commentswrite comment
1 2 3 4 5
x 5
add to favorites
×
Save as Personal and add changes to this tab that will be seen only by you. Learn more ›
×
You can save this tab as Personal to edit and correct it or add notes. All changes will be seen only by you. Learn more »
launch autoscroll
font size
0
reset
how to read this tab
guitar tuner
edit
Autoscroll
slow
fast
+/-
esc
set tempo
stop
Very simple and easy to do, tuning is Drop C
Optionaly played in Drop D, just move steps down 2 frets

Key:
.-Palm mute
~-Sustain a note
h-Hammer-on

Intro/Chorus(lead, then rhythm follows up at :09)
D:---------------------------------------------|
A:---------------------------------------------|
F:---------------------------------------------|
C:-7------3------10------5---------------------|
G:-7(x16)-3(x16)-10(x16)-5(x16)----------------|
C:-7------3------10------5---------------------|

Verse :11
D:---------------------------------------------|
A:---------------------------------------------|
F:---------------------------------------------|
C:-10x----9x-----3x-----10x-----5x-------------|
G:-7x(x4)-6x(x4)-3x(x4)-10x(x2)-5x(x2)---------|
C:-7x-----6x-----3x-----10x-----5x-------------|

Pre-Chorus :24 (10s, no 1s and 0s)
D:---------------------------------------------|X2
A:---------------------------------------------|
F:---------------------------------------------|
C:-777-101010-66666666-333333333-66666666------|
G:-777-101010-66666666-333333333-66666666------|
C:-777-101010-66666666-333333333-66666666------|
                                 ^(palm muted 2nd time through) 
Chorus :36
D:---------------------------------------------|
A:---------------------------------------------|
F:---------------------------------------------|
C:-7------3------10------5---------------------|
G:-7(x16)-3(x16)-10(x16)-5(x16)----------------|
C:-7------3------10------5---------------------|

Verse :51
D:---------------------------------------------|
A:---------------------------------------------|
F:---------------------------------------------|
C:-10x----9x-----3x-----10x-----5x-------------|
G:-7x(x4)-6x(x4)-3x(x4)-10x(x2)-5x(x2)---------|
C:-7x-----6x-----3x-----10x-----5x-------------|

Pre-Chorus 1:03
D:---------------------------------------------|X2
A:---------------------------------------------|
F:---------------------------------------------|
C:-777-101010-66666666-333333333-66666666------|
G:-777-101010-66666666-333333333-66666666------|
C:-777-101010-66666666-333333333-66666666------| 
                       Last bit palm muted 2nd time through
Chorus 1:15
D:---------------------------------------------|
A:---------------------------------------------|
F:---------------------------------------------|
C:-7------3------10------5---------------------|
G:-7(x16)-3(x16)-10(x16)-5(x16)----------------|
C:-7------3------10------5---------------------|

Bridge 1:39
D:---------------------------------------------|
A:---------------------------------------------|
F:---------------------------------------------|
C:-777------777------7~---777-3333-66----------|
G:-777-Rest-777-Rest-7~---777-3333-66----------|
C:-777------777------7~---777-3333-66----------|
                          ... .... ..   

Breakdown 1:53
D:---------------------------------------------|X2
A:---------------------------------------------|
F:---------------------------------------------|
C:-777-10101010-666666666-777-3333-666666666---|
G:-777-10101010-666666666-777-3333-666666666---|
C:-777-10101010-666666666-777-3333-666666666---|

D:---------------------------------------------|
A:---------------------------------------------|
F:---------------------------------------------|
C:---------------------------------------------|
G:---------------------------------------------|
C:-777-10101010-6666-22222-777-3333-6666-22222-|

D:---------------------------------------------|
A:---------------------------------------------|
F:---------------------------------------------|
C:-77~-1010~-66~-22222-77~-33~-66~-22222-------|
G:-77~-1010~-66~-22222-77~-33~-66~-22222-------|
C:-77~-1010~-66~-22222-77~-33~-66~-22222-------|
                 .....             ..... 
Chorus 2:23
D:---------------------------------------------|X2
A:---------------------------------------------|
F:---------------------------------------------|
C:-7------3------10------5---------------------|
G:-7(x16)-3(x16)-10(x16)-5(x16)----------------|
C:-7------3------10------5---------------------|

Ourto 2:47
D:---------------------------------------------|
A:---------------------------------------------|
F:---------------------------------------------|
C:-5h7-5h7-5h7-5h77-1010-5---------------------|
G:-----------------------5---------------------|
C:-----------------------5---------------------|

When I play it, it sounds perfect
So hope you enjoy!
P.s-Any questions? Send them to my email at, attackattack1@yahoo.com
Thanks!

            
            
Suggest correction
Creating personal tab
Creating personal tab
You can edit any tab online and save it as your Personal.

You can edit, replace or remove any tab part or add personal notes – all changes will be seen only by you.

Personal tabs can be accessed anytime from any device, even offline.
Learn more »
comments
print report bad tab
guest
Wanna post a correction for this tab? Suggest correction