Oops, an error
Loading. Please wait.

Naivety tab

5,659 views 12 this week
no commentswrite comment
1 2 3 4 5
x 9
add to favorites
×
Save as Personal and add changes to this tab that will be seen only by you. Learn more ›
×
You can save this tab as Personal to edit and correct it or add notes. All changes will be seen only by you. Learn more »
launch autoscroll
font size
0
reset
how to read this tab
guitar tuner
edit
Autoscroll
slow
fast
+/-
esc
set tempo
stop
[Intro]


Guitar 1:
d|------------------------------------------------------------|
A|------------------------------------------------------------|
F|-------7~----------7~-------------7~------------------------|
C|--9~---x---7~--5~--x---7~----9~---x---7~--5~---7~-----------|
G|--x----5~--x---x---5~--x-----x----5~--x---x----x------------|
C|--9~-------7~--5~------7~----9~-------7~--5~---7~-----------|


Guitar 2:
d|----------------------------------------------------------------|
A|----------------------------------------------------------------|
F|-------------------7~-------------------------------------------|
C|--9~-----------5~--7~--------9~-----------5~---7~---------------|
G|--9------------5~--5~--------9~-----------5~---7~---------------|
C|--9~-----------5~------------9~-----------5~---7~---------------|


[Verse 1]


Both guitars:
d|------------------------------------------------------------------------------|
A|------------------------------------------------------------------------------|
F|----------------------------------------------------------7-------------------|
C|--9-9----------------------------------5------------------7-7-7-7-7-7-7-7-7---|
G|--9-9-9-9-9-9-9-9-9-9-9-9-9-9-9-9-9-9--5-5-5-5-5-5-5-5-5--5-5-5-5-5-5-5-5-5---|
C|--9-9-9-9-9-9-9-9-9-9-9-9-9-9-9-9-9-9--5-5-5-5-5-5-5-5-5----------------------|
pm      . . . . . . . . . . . . . . . .    . . . . . . . .    . . . . . . . . 

d|-----------------------------------------------------------------------------|
A|-----------------------------------------------------------------------------|
F|---------------------------------------------------------7-------------------|
C|---9----------------------------------5------------------7-7-7-7-7-7-7-7-7---|
G|---9-9-9-9-9-9-9-9-9-9-9-9-9-9-9-9-9--5-5-5-5-5-5-5-5-5--5-5-5-5-5-5-5-5-5---|
C|---9-9-9-9-9-9-9-9-9-9-9-9-9-9-9-9-9--5-5-5-5-5-5-5-5-5----------------------|
pm     . . . . . . . . . . . . . . . .    . . . . . . . .    . . . . . . . . 

d|--------------------------------------------------------------------------|
A|--------------------------------------------------------------------------|
F|-----------------------------------------------------------7-------7------|
C|-------9-------9-------9-------9---------5-------5-----7-7-7-7-7-7-7-7----|
G|---9-9-9-9-9-9-9-9-9-9-9-9-9-9-9-9---5-5-5-5-5-5-5-5---5-5-5-5-5-5-5-5----|
C|---9-9-9-9-9-9-9-9-9-9-9-9-9-9-9-9---5-5-5-5-5-5-5-5----------------------|
pm   . .   . . .   . . .   . . .   .   . .   . . . . .   . .   . . .   . 

d|--------------------------------------------------------------------------|
A|--------------------------------------------------------------------------|
F|--------------------------------------------------------------------------|
C|-------9-------9-------9-------9---------5-------5---------7-------7------|
G|---9-9-9-9-9-9-9-9-9-9-9-9-9-9-9-9---5-5-5-5-5-5-5-5---7-7-7-7-7-7-7-7----|
C|---9-9-9-9-9-9-9-9-9-9-9-9-9-9-9-9---5-5-5-5-5-5-5-5---7-7-7-7-7-7-7-7----|
pm   . .   . . .   . . .   . . .   .   . .   . . . . .   . .   . . .   . 


[Pre Chorus 1]


Both Guitars:
d|----------------------------------------------------------------------------|
A|----------------------------------------------------------------------------|
F|----------------------------------------------------------------------------|
C|----5-----------------------------------7-----------------------------------|
G|----5-5-5-5-5-5-5-5-5-5-5-5-5-5-5-5-5---7-7-7-7-7-7-7-7-7-7-7-7-7-7-7-7-7---|
C|----5-5-5-5-5-5-5-5-5-5-5-5-5-5-5-5-5---7-7-7-7-7-7-7-7-7-7-7-7-7-7-7-7-7---|
pm      . . . . . . . . . . . . . . . .     . . . . . . . . . . . . . . . .


[Chorus 1]


Guitar 1:
d|---------------------------------------------------------------------|
A|---------------------------------------------------------------------|
F|--7-7-7-7-7-7-7-7-7-7-7-7-7-7-7-7---6-6-6-6-6-6-6-6--6-7--6--4--2-4--|
C|--x-x-x-x-x-x-x-x-x-x-x-x-x-x-x-x---x-x-x-x-x-x-x-x--x-x--x--x--x-x--|
G|--5-5-5-5-5-5-5-5-5-5-5-5-5-5-5-5---4-4-4-4-4-4-4-4--4/5--4--2--0-2--|
C|---------------------------------------------------------------------|

d|----------------------------------------------------------------------------|
A|----------------------------------------------------------------------------|
F|--4-4-4-4-4-4-4-4-4-4-4-4-4-4-4-4---7-7-7-7--9-9-9-9--11-11-11-11-11/12\11--|
C|--x-x-x-x-x-x-x-x-x-x-x-x-x-x-x-x---x-x-x-x--x-x-x-x--x--x--x--x--x-/x-\x---|
G|--2-2-2-2-2-2-2-2-2-2-2-2-2-2-2-2---5-5-5-5--7-7-7-7--9--9--9--9--9-/10\9---|
C|----------------------------------------------------------------------------|

d|----------------------------------------------------------------------------------------------------|
A|----------------------------------------------------------------------------------------------------|
F|--14-14-14-14-14-14-14-14-14-14-12-12-11-11-12-12--14-14-14-14-14-14-14-14-14-14-12-12-11-11-12-12--|
C|--12-12-12-12-12-12-12-12-12-12-12-12-12-12-12-12--12-12-12-12-12-12-12-12-12-12-12-12-12-12-12-12--|
G|----------------------------------------------------------------------------------------------------|
C|----------------------------------------------------------------------------------------------------|

d|--------------------------------------------------------------------------------------------|
A|--------------------------------------------------------------------------------------------|
F|--14-14-14-14-14-14-14-14-14-14-12-12-11-11-12-12---7-7-7-7--9-9-9-9--11-11-11-11-11/12\11--|
C|--12-12-12-12-12-12-12-12-12-12-12-12-12-12-12-12---x-x-x-x--x-x-x-x--x--x--x--x--x-/x-\x---|
G|----------------------------------------------------5-5-5-5--7-7-7-7--9--9--9--9--9-/10\9---|
C|--------------------------------------------------------------------------------------------|

Guitar 2:
d|---------------------------------------------------------------------|
A|---------------------------------------------------------------------|
F|--7-7-7-7-7-7-7-7-7-7-7-7-7-7-7-7------------------------------------|
C|--7-7-7-7-7-7-7-7-7-7-7-7-7-7-7-7---4-4-4-4-4-4-4-4-4-4-4-4-4-4-4-4--|
G|--5-5-5-5-5-5-5-5-5-5-5-5-5-5-5-5---4-4-4-4-4-4-4-4-4-4-4-4-4-4-4-4--|
C|------------------------------------4-4-4-4-4-4-4-4-4-4-4-4-4-4-4-4--|

d|---------------------------------------------------------------------|
A|---------------------------------------------------------------------|
F|---------------------------------------------------------------------|
C|--9-9-9-9-9-9-9-9-9-9-9-9-9-9-9-9---5-5-5-5-5-5-5-5-5-5-5-5-5-5-5-5--|
G|--9-9-9-9-9-9-9-9-9-9-9-9-9-9-9-9---5-5-5-5-5-5-5-5-5-5-5-5-5-5-5-5--|
C|--9-9-9-9-9-9-9-9-9-9-9-9-9-9-9-9---5-5-5-5-5-5-5-5-5-5-5-5-5-5-5-5--|

d|---------------------------------------------------------------------|
A|---------------------------------------------------------------------|
F|--7-7-7-7-7-7-7-7-7-7-7-7-7-7-7-7------------------------------------|
C|--7-7-7-7-7-7-7-7-7-7-7-7-7-7-7-7---4-4-4-4-4-4-4-4-4-4-4-4-4-4-4-4--|
G|--5-5-5-5-5-5-5-5-5-5-5-5-5-5-5-5---4-4-4-4-4-4-4-4-4-4-4-4-4-4-4-4--|
C|------------------------------------4-4-4-4-4-4-4-4-4-4-4-4-4-4-4-4--|

d|---------------------------------------------------------------------|
A|---------------------------------------------------------------------|
F|---------------------------------------------------------------------|
C|--9-9-9-9-9-9-9-9-9-9-9-9-9-9-9-9---5-5-5-5-5-5-5-5-5-5-5-5-5-5-5-5--|
G|--9-9-9-9-9-9-9-9-9-9-9-9-9-9-9-9---5-5-5-5-5-5-5-5-5-5-5-5-5-5-5-5--|
C|--9-9-9-9-9-9-9-9-9-9-9-9-9-9-9-9---5-5-5-5-5-5-5-5-5-5-5-5-5-5-5-5--|


[Verse 2]


Guitar 1:
d|---------------------------------------------------------------------|
A|-------------12----14^15^14-12--12~-----12-----14^15^14^15--12--12~--|
F|----------------11-------------------------11------------------------|
C|--9------------------------------------------------------------------|
G|--9------------------------------------------------------------------|
C|--9------------------------------------------------------------------|

d|---------------------------------------------------------------------------|
A|---------------------------------------------------------------------------|
F|-------------------------------7------------------------------------7------|
C|--9-9-9--7-9-9-9--7-9-9-9--7-9---9-7---9-9-9--7-9-9-9--7-9-9-9--7-9---9-7--|
G|---------------------------------------------------------------------------|
C|---------------------------------------------------------------------------|
pm  . . .  . . . .  . . . .  . . . . .   . . .  . . . .  . . . .  . . . . .

d|---------------------------------------------------------------------------|
A|---------------------------------------------------------------------------|
F|-------------------------------7------------------------9-9-9-9-9-9-9-9----|
C|--9-9-9--7-9-9-9--7-9-9-9--7-9---9-7---5-5-5-5-5-5-5-5---------------------|
G|---------------------------------------------------------------------------|
C|---------------------------------------------------------------------------|
pm  . . .  . . . .  . . . .  . . . . .   . . . . . . . .  . . . . . . . .


Guitar 3:
d|-------------------------------------------------------------------|
A|-------------------------------------------------------------------|
F|-------------------------------7--6--4~--4/11~---7-----------------|
C|----------------------------------------------------7----9---------|
G|-------------------------------------------------------------------|
C|-------------------------------------------------------------------|


Guitar 2:
d|------------------------------------------------------------------------------|
A|------------------------------------------------------------------------------|
F|----------------------------------------------------------7-------------------|
C|--9------------------------------------5------------------7-7-7-7-7-7-7-7-7---|
G|--9------------------------------------5-5-5-5-5-5-5-5-5--5-5-5-5-5-5-5-5-5---|
C|--9------------------------------------5-5-5-5-5-5-5-5-5----------------------|
pm                                         . . . . . . . .    . . . . . . . . 

d|-----------------------------------------------------------------------------|
A|-----------------------------------------------------------------------------|
F|---------------------------------------------------------7-------------------|
C|---9----------------------------------5------------------7-7-7-7-7-7-7-7-7---|
G|---9-9-9-9-9-9-9-9-9-9-9-9-9-9-9-9-9--5-5-5-5-5-5-5-5-5--5-5-5-5-5-5-5-5-5---|
C|---9-9-9-9-9-9-9-9-9-9-9-9-9-9-9-9-9--5-5-5-5-5-5-5-5-5----------------------|
pm     . . . . . . . . . . . . . . . .    . . . . . . . .    . . . . . . . . 

d|--------------------------------------------------------------------------|
A|--------------------------------------------------------------------------|
F|-----------------------------------------------------------7-----7---7----|
C|-------9-------9-------9-------9---------5-------5-----7-7-7-7-7-7-7-7----|
G|---9-9-9-9-9-9-9-9-9-9-9-9-9-9-9-9---5-5-5-5-5-5-5-5---5-5-5-5-5-5-5-5----|
C|---9-9-9-9-9-9-9-9-9-9-9-9-9-9-9-9---5-5-5-5-5-5-5-5----------------------|
pm   . .   . . .   . . .   . . .   .   . .   . . . . .   . .   . .   .

d|--------------------------------------------------------------------------|
A|--------------------------------------------------------------------------|
F|--------------------------------------------------------------------------|
C|-------9-------9-------9-------9---------5-------5---------7-------7------|
G|---9-9-9-9-9-9-9-9-9-9-9-9-9-9-9-9---5-5-5-5-5-5-5-5---7-7-7-7-7-7-7-7----|
C|---9-9-9-9-9-9-9-9-9-9-9-9-9-9-9-9---5-5-5-5-5-5-5-5---7-7-7-7-7-7-7-7----|
pm   . .   . . .   . . .   . . .   .   . .   . . . . .   . .   . . .   . 


[Pre Chorus 2]


Guitar 1:
d|----------------------------------------------------------------------------|
A|----------------------------------------------------------------------------|
F|---4-4-4--6-6-6--7-7-7--9-9-9-9-9-9-9---6-6-6---7-7-7---9-9-9-9-9-9-9-9-9-9-|
C|---x-x-x--x-x-x--x-x-x--x-x-x-x-x-x-x---x-x-x---x-x-x---x-x-x-x-x-x-x-x-x-x-|
G|---2-2-2--4-4-4--5-5-5--7-7-7-7-7-7-7---4-4-4---5-5-5---7-7-7-7-7-7-7-7-7-7-|
C|----------------------------------------------------------------------------|

Guitar 2:
d|----------------------------------------------------------------------------|
A|----------------------------------------------------------------------------|
F|----------------------------------------------------------------------------|
C|----5-----------------------------------7-----------------------------------|
G|----5-5-5-5-5-5-5-5-5-5-5-5-5-5-5-5-5---7-7-7-7-7-7-7-7-7-7-7-7-7-7-7-7-7---|
C|----5-5-5-5-5-5-5-5-5-5-5-5-5-5-5-5-5---7-7-7-7-7-7-7-7-7-7-7-7-7-7-7-7-7---|
pm      . . . . . . . . . . . . . . . .     . . . . . . . . . . . . . . . .


[Chorus 2]


Guitar 1:
d|---------------------------------------------------------------------|
A|---------------------------------------------------------------------|
F|--7-7-7-7-7-7-7-7-7-7-7-7-7-7-7-7---6-6-6-6-6-6-6-6--6-7--6--4--2-4--|
C|--x-x-x-x-x-x-x-x-x-x-x-x-x-x-x-x---x-x-x-x-x-x-x-x--x-x--x--x--x-x--|
G|--5-5-5-5-5-5-5-5-5-5-5-5-5-5-5-5---4-4-4-4-4-4-4-4--4/5--4--2--0-2--|
C|---------------------------------------------------------------------|

d|----------------------------------------------------------------------------|
A|----------------------------------------------------------------------------|
F|--4-4-4-4-4-4-4-4-4-4-4-4-4-4-4-4---7-7-7-7--9-9-9-9--11-11-11-11-11/12\11--|
C|--x-x-x-x-x-x-x-x-x-x-x-x-x-x-x-x---x-x-x-x--x-x-x-x--x--x--x--x--x-/x-\x---|
G|--2-2-2-2-2-2-2-2-2-2-2-2-2-2-2-2---5-5-5-5--7-7-7-7--9--9--9--9--9-/10\9---|
C|----------------------------------------------------------------------------|

d|----------------------------------------------------------------------------------------------------|
A|----------------------------------------------------------------------------------------------------|
F|--14-14-14-14-14-14-14-14-14-14-12-12-11-11-12-12--14-14-14-14-14-14-14-14-14-14-12-12-11-11-12-12--|
C|--12-12-12-12-12-12-12-12-12-12-12-12-12-12-12-12--12-12-12-12-12-12-12-12-12-12-12-12-12-12-12-12--|
G|----------------------------------------------------------------------------------------------------|
C|----------------------------------------------------------------------------------------------------|

d|--------------------------------------------------------------------------------------------|
A|--------------------------------------------------------------------------------------------|
F|--14-14-14-14-14-14-14-14-14-14-12-12-11-11-12-12---7-7-7-7--9-9-9-9--11-11-11-11-11/12\11--|
C|--12-12-12-12-12-12-12-12-12-12-12-12-12-12-12-12---x-x-x-x--x-x-x-x--x--x--x--x--x-/x-\x---|
G|----------------------------------------------------5-5-5-5--7-7-7-7--9--9--9--9--9-/10\9---|
C|--------------------------------------------------------------------------------------------|

Guitar 2:
d|---------------------------------------------------------------------|
A|---------------------------------------------------------------------|
F|--7-7-7-7-7-7-7-7-7-7-7-7-7-7-7-7------------------------------------|
C|--7-7-7-7-7-7-7-7-7-7-7-7-7-7-7-7---4-4-4-4-4-4-4-4-4-4-4-4-4-4-4-4--|
G|--5-5-5-5-5-5-5-5-5-5-5-5-5-5-5-5---4-4-4-4-4-4-4-4-4-4-4-4-4-4-4-4--|
C|------------------------------------4-4-4-4-4-4-4-4-4-4-4-4-4-4-4-4--|

d|---------------------------------------------------------------------|
A|---------------------------------------------------------------------|
F|---------------------------------------------------------------------|
C|--9-9-9-9-9-9-9-9-9-9-9-9-9-9-9-9---5-5-5-5-5-5-5-5-5-5-5-5-5-5-5-5--|
G|--9-9-9-9-9-9-9-9-9-9-9-9-9-9-9-9---5-5-5-5-5-5-5-5-5-5-5-5-5-5-5-5--|
C|--9-9-9-9-9-9-9-9-9-9-9-9-9-9-9-9---5-5-5-5-5-5-5-5-5-5-5-5-5-5-5-5--|

d|---------------------------------------------------------------------|
A|---------------------------------------------------------------------|
F|--7-7-7-7-7-7-7-7-7-7-7-7-7-7-7-7------------------------------------|
C|--7-7-7-7-7-7-7-7-7-7-7-7-7-7-7-7---4-4-4-4-4-4-4-4-4-4-4-4-4-4-4-4--|
G|--5-5-5-5-5-5-5-5-5-5-5-5-5-5-5-5---4-4-4-4-4-4-4-4-4-4-4-4-4-4-4-4--|
C|------------------------------------4-4-4-4-4-4-4-4-4-4-4-4-4-4-4-4--|

d|---------------------------------------------------------------------|
A|---------------------------------------------------------------------|
F|---------------------------------------------------------------------|
C|--9-9-9-9-9-9-9-9-9-9-9-9-9-9-9-9---5-5-5-5-5-5-5-5-5-5-5-5-5-5-5-5--|
G|--9-9-9-9-9-9-9-9-9-9-9-9-9-9-9-9---5-5-5-5-5-5-5-5-5-5-5-5-5-5-5-5--|
C|--9-9-9-9-9-9-9-9-9-9-9-9-9-9-9-9---5-5-5-5-5-5-5-5-5-5-5-5-5-5-5-5--|


[Bridge]


Guitar 1:
d|------------------------------------------------------------------------|
A|------------------------------------------------------------------------|
F|---11~--------11~-----------------9-11-11---9-11-11--9-11-11--9-11-11---|
C|---0~---------0~--------9~--------0--0--0---0-0--0---0-0--0---0-0--0----|
G|------------------------x-----------------------------------------------|
C|------------------------9~----------------------------------------------|

d|---------------------------------------------------------------------------------------------------|
A|---------------------------------------------------------------------------------------------------|
F|--9-11-11---9-11-11--9-11-11--9-11-11--12-12-9-9----9-11-11---9-11-11--9-11-11--9-11-11--12-12-9-9-|
C|--0--0--0---0-0--0---0-0--0---0-0--0---0--0--0-0----0--0--0---0-0--0---0-0--0---0-0--0---0--0--0-0-|
G|---------------------------------------------------------------------------------------------------|
C|---------------------------------------------------------------------------------------------------|

d|---------------------------------------------------------------------------------------------------|
A|---------------------------------------------------------------------------------------------------|
F|--9-11-11---9-11-11--9-11-11--9-11-11--12-12-9-9----9-11-11---9-11-11--9-11-11--9-11-11--12-12-9-9-|
C|--0--0--0---0-0--0---0-0--0---0-0--0---0--0--0-0----0--0--0---0-0--0---0-0--0---0-0--0---0--0--0-0-|
G|---------------------------------------------------------------------------------------------------|
C|---------------------------------------------------------------------------------------------------|

d|---------------------------------------------------------------------------------------------------|
A|---------------------------------------------------------------------------------------------------|
F|--9-11-11---9-11-11--9-11-11--9-11-11--12-12-9-9----9-11-11---9-11-11--9-11-11--9-11-11--12-12-9-9-|
C|--0--0--0---0-0--0---0-0--0---0-0--0---0--0--0-0----0--0--0---0-0--0---0-0--0---0-0--0---0--0--0-0-|
G|---------------------------------------------------------------------------------------------------|
C|---------------------------------------------------------------------------------------------------|

d|---------------------------------------------------------------------------------------------------|
A|---------------------------------------------------------------------------------------------------|
F|--9-11-11---9-11-11--9-11-11--9-11-11--12-12-9-9----9-11-11---9-11-11--9-11-11--9-11-11--12-12-9-9-|
C|--0--0--0---0-0--0---0-0--0---0-0--0---0--0--0-0----0--0--0---0-0--0---0-0--0---0-0--0---0--0--0-0-|
G|---------------------------------------------------------------------------------------------------|
C|---------------------------------------------------------------------------------------------------|


Guitar 2:
d|-----------------------------------------------|
A|-----------------------------------------------|
F|--7~---------7~--------------------------------|
C|--7~---------7~---------9~------------x--------|
G|--5~---------5~---------9~------------x--------|
C|------------------------9~------------x--------|

d|--------------------------------------------------------------------------------------------|
A|--------------------------------------------------------------------------------------------|
F|--7-7-7-7-7-7-7-7---14-14-14-14-14-14-14-14-14---7-7-7-7-7-7-7-7---14-14-14-14-14-14-14-14--|
C|--x-x-x-x-x-x-x-x---x--x--x--x--x--x--x--x--x----x-x-x-x-x-x-x-x---x--x--x--x--x--x--x--x---|
G|--5-5-5-5-5-5-5-5---12-12-12-12-12-12-12-12-12---5-5-5-5-5-5-5-5---12-12-12-12-12-12-12-12--|
C|--------------------------------------------------------------------------------------------|

d|-----------------------------------------------------------------------------|
A|-----------------------------------------------------------------------------|
F|--4-4-4-4-4-4-4-4---11-11-11-11-11-11-11----7-7-7-7-7-7-7-7---6-6-6-6--7-7-7-|
C|--x-x-x-x-x-x-x-x---x--x--x--x--x--x--x-----x-x-x-x-x-x-x-x---x-x-x-x--x-x-x-|
G|--2-2-2-2-2-2-2-2---9--9--9--9--9--9--9-----5-5-5-5-5-5-5-5---4-4-4-4--5-5-5-|
C|-----------------------------------------------------------------------------|

d|--------------------------------------------------------------------------------------------|
A|--------------------------------------------------------------------------------------------|
F|--7-7-7-7-7-7-7-7---14-14-14-14-14-14-14-14-14---7-7-7-7-7-7-7-7---14-14-14-14-14-14-14-14--|
C|--x-x-x-x-x-x-x-x---x--x--x--x--x--x--x--x--x----x-x-x-x-x-x-x-x---x--x--x--x--x--x--x--x---|
G|--5-5-5-5-5-5-5-5---12-12-12-12-12-12-12-12-12---5-5-5-5-5-5-5-5---12-12-12-12-12-12-12-12--|
C|--------------------------------------------------------------------------------------------|

d|-----------------------------------------------------------------------------|
A|-----------------------------------------------------------------------------|
F|--4-4-4-4-4-4-4-4---11-11-11-11-11-11-11----7-7-7-7-7-7-7-7---6-6-6-6--7-7-7-|
C|--x-x-x-x-x-x-x-x---x--x--x--x--x--x--x-----x-x-x-x-x-x-x-x---x-x-x-x--x-x-x-|
G|--2-2-2-2-2-2-2-2---9--9--9--9--9--9--9-----5-5-5-5-5-5-5-5---4-4-4-4--5-5-5-|
C|-----------------------------------------------------------------------------|


[Pre Chorus 3]


Guitar 1:
d|-----------------------------------------------------------------|
A|-----------------------------------------------------------------|
F|--7~---9~---6~---7--6--4--2-4~------9----6~----6-6-6-6-6-6-6-6-6-|
C|--x----x----x----x--x--x--x-x-------x----x-----x-x-x-x-x-x-x-x-x-|
G|--5~---7~---4~---5--4--2--0-2~------7----4~----4-4-4-4-4-4-4-4-4-|
C|-----------------------------------------------------------------|

Guitar 2:
d|----------------------------------------------------------------------------|
A|----------------------------------------------------------------------------|
F|----------------------------------------------------------------------------|
C|----5-----------------------------------7-----------------------------------|
G|----5-5-5-5-5-5-5-5-5-5-5-5-5-5-5-5-5---7-7-7-7-7-7-7-7-7-7-7-7-7-7-7-7-7---|
C|----5-5-5-5-5-5-5-5-5-5-5-5-5-5-5-5-5---7-7-7-7-7-7-7-7-7-7-7-7-7-7-7-7-7---|
pm      . . . . . . . . . . . . . . . .     . . . . . . . . . . . . . . . .

d|----------------------------------------------------------------------------|
A|----------------------------------------------------------------------------|
F|----------------------------------------------------------------------------|
C|----5-----------------------------------7-----------------------------------|
G|----5-5-5-5-5-5-5-5-5-5-5-5-5-5-5-5-5---7-7-7-7-7-7-7-7-7-7-7-7-7-7-7-7-7---|
C|----5-5-5-5-5-5-5-5-5-5-5-5-5-5-5-5-5---7-7-7-7-7-7-7-7-7-7-7-7-7-7-7-7-7---|
pm      . . . . . . . .                     . . . . . . . . 


[Chorus 3]


Guitar 1:
d|---------------------------------------------------------------------|
A|---------------------------------------------------------------------|
F|--7-7-7-7-7-7-7-7-7-7-7-7-7-7-7-7---6-6-6-6-6-6-6-6--6-7--6--4--2-4--|
C|--x-x-x-x-x-x-x-x-x-x-x-x-x-x-x-x---x-x-x-x-x-x-x-x--x-x--x--x--x-x--|
G|--5-5-5-5-5-5-5-5-5-5-5-5-5-5-5-5---4-4-4-4-4-4-4-4--4/5--4--2--0-2--|
C|---------------------------------------------------------------------|

d|----------------------------------------------------------------------------|
A|----------------------------------------------------------------------------|
F|--4-4-4-4-4-4-4-4-4-4-4-4-4-4-4-4---7-7-7-7--9-9-9-9--11-11-11-11-11/12\11--|
C|--x-x-x-x-x-x-x-x-x-x-x-x-x-x-x-x---x-x-x-x--x-x-x-x--x--x--x--x--x-/x-\x---|
G|--2-2-2-2-2-2-2-2-2-2-2-2-2-2-2-2---5-5-5-5--7-7-7-7--9--9--9--9--9-/10\9---|
C|----------------------------------------------------------------------------|

d|----------------------------------------------------------------------------------------------------|
A|----------------------------------------------------------------------------------------------------|
F|--14-14-14-14-14-14-14-14-14-14-12-12-11-11-12-12--14-14-14-14-14-14-14-14-14-14-12-12-11-11-12-12--|
C|--12-12-12-12-12-12-12-12-12-12-12-12-12-12-12-12--12-12-12-12-12-12-12-12-12-12-12-12-12-12-12-12--|
G|----------------------------------------------------------------------------------------------------|
C|----------------------------------------------------------------------------------------------------|

d|--------------------------------------------------------------------------------------------|
A|--------------------------------------------------------------------------------------------|
F|--14-14-14-14-14-14-14-14-14-14-12-12-11-11-12-12---7-7-7-7--9-9-9-9--11-11-11-11-11/12\11--|
C|--12-12-12-12-12-12-12-12-12-12-12-12-12-12-12-12---x-x-x-x--x-x-x-x--x--x--x--x--x-/x-\x---|
G|----------------------------------------------------5-5-5-5--7-7-7-7--9--9--9--9--9-/10\9---|
C|--------------------------------------------------------------------------------------------|

Guitar 2:
d|---------------------------------------------------------------------|
A|---------------------------------------------------------------------|
F|--7-7-7-7-7-7-7-7-7-7-7-7-7-7-7-7------------------------------------|
C|--7-7-7-7-7-7-7-7-7-7-7-7-7-7-7-7---4-4-4-4-4-4-4-4-4-4-4-4-4-4-4-4--|
G|--5-5-5-5-5-5-5-5-5-5-5-5-5-5-5-5---4-4-4-4-4-4-4-4-4-4-4-4-4-4-4-4--|
C|------------------------------------4-4-4-4-4-4-4-4-4-4-4-4-4-4-4-4--|

d|---------------------------------------------------------------------|
A|---------------------------------------------------------------------|
F|---------------------------------------------------------------------|
C|--9-9-9-9-9-9-9-9-9-9-9-9-9-9-9-9---5-5-5-5-5-5-5-5-5-5-5-5-5-5-5-5--|
G|--9-9-9-9-9-9-9-9-9-9-9-9-9-9-9-9---5-5-5-5-5-5-5-5-5-5-5-5-5-5-5-5--|
C|--9-9-9-9-9-9-9-9-9-9-9-9-9-9-9-9---5-5-5-5-5-5-5-5-5-5-5-5-5-5-5-5--|

d|---------------------------------------------------------------------|
A|---------------------------------------------------------------------|
F|--7-7-7-7-7-7-7-7-7-7-7-7-7-7-7-7------------------------------------|
C|--7-7-7-7-7-7-7-7-7-7-7-7-7-7-7-7---4-4-4-4-4-4-4-4-4-4-4-4-4-4-4-4--|
G|--5-5-5-5-5-5-5-5-5-5-5-5-5-5-5-5---4-4-4-4-4-4-4-4-4-4-4-4-4-4-4-4--|
C|------------------------------------4-4-4-4-4-4-4-4-4-4-4-4-4-4-4-4--|

d|---------------------------------------------------------------------|
A|---------------------------------------------------------------------|
F|---------------------------------------------------------------------|
C|--9-9-9-9-9-9-9-9-9-9-9-9-9-9-9-9---5-5-5-5-5-5-5-5-5-5-5-5-5-5-5-5--|
G|--9-9-9-9-9-9-9-9-9-9-9-9-9-9-9-9---5-5-5-5-5-5-5-5-5-5-5-5-5-5-5-5--|
C|--9-9-9-9-9-9-9-9-9-9-9-9-9-9-9-9---5-5-5-5-5-5-5-5-5-5-5-5-5-5-5-5--|


[Outro]
Guitar 1:
d|-------------------------------------------------------------|
A|-------------------------------------------------------------|
F|-------7~----------7~-------------7~-------------------------|
C|--9~---x---7~--5~--x---7~----9~---x---7~--5~---7~-----9~-----|
G|--x----5~--x---x---5~--x-----x----5~--x---x----x------x------|
C|--9~-------7~--5~------7~----9~-------7~--5~---7~-----9~-----|


Guitar 2:
d|----------------------------------------------------------------|
A|----------------------------------------------------------------|
F|-------------------7~-------------------------------------------|
C|--9~-----------5~--7~--------9~-----------5~---7~-----9~--------|
G|--9------------5~--5~--------9~-----------5~---7~-----9~--------|
C|--9~-----------5~------------9~-----------5~---7~-----9~--------|



************************************

| x    Dead note
| (n)  Ghost note
| h    Hammer-on
| /    Slide up
| \    Slide down
| ~    Vibrato
| pm . Palm mute
| ^    Bend

************************************

            
            
Suggest correction
Creating personal tab
Creating personal tab
You can edit any tab online and save it as your Personal.

You can edit, replace or remove any tab part or add personal notes – all changes will be seen only by you.

Personal tabs can be accessed anytime from any device, even offline.
Learn more »
comments
print report bad tab
guest
You may want to rate the tab now too:
select rating
Wanna post a correction for this tab? Suggest correction