Oops, an error
Loading. Please wait.
We have an official Plot To Bomb The Panhandle tab made by UG professional guitarists. Check out the tab »
×
44,379 views 6 this week
17 commentsread comments
1 2 3 4 5
x 15
add to favorites
×
Save as Personal and add changes to this tab that will be seen only by you. Learn more ›
×
You can save this tab as Personal to edit and correct it or add notes. All changes will be seen only by you. Learn more »
launch autoscroll
font size
0
reset
how to read this tab
guitar tuner
edit
Autoscroll
slow
fast
+/-
esc
set tempo
stop
Alright this song is kick ass really simple i doubt it but if u have any corrections 
it to me at fvans69@aol.com

 Drop D tuning
 lead guitar
 INTRO 00:08
E|-------------------------------------------------------------|
B|-------------------------------------------------------------|
G|---------3333333333----------333333--------------------------| whole thing 4 times
D|---5-5-----------------5-5-----------5-\-1-------------------|
A|---5-5-----------------5-5-----------5-\-1-------------------|
D|---5-5-----------------5-5-----------5-\-1-------------------|

 Post Intro 00:27
E|--------------------------------------------------------------------------|
B|--------------------------------------------------------------------------|
G|--------------------------------------------------------------------------|
D|----5-5--7\8-----0-0-5-7\8~-----------------------------------------------|
A|----5-5--7\8-----0-0-5-7\8~-----------------------------------------------|
D|----5-5--7\8-----0-0-5-7\8~-----------------------------------------------|

 Verse 00:31
E|--------------------------------------------------------------------------|
B|--------------------------------------------------------------------------|
G|--------------------------------------------------------------------------|
D|------55555555-00000000-111111111111-55555555--88888888-------------------|
A|------55555555-00000000-111111111111-55555555--88888888-------------------|
D|------55555555-00000000-111111111111-55555555--88888888-------------------|

E|---------------------|
B|---------------------|
G|---------------------|
D|-----3~-33x33x33x33\-|
A|-----3~-33x33x33x33\-|
D|-----3~-33x33x33x33\-|

E|--------------------------------------------------------------------------|
B|--------------------------------------------------------------------------|
G|--------------------------------------------------------------------------|
D|------55555555-00000000-111111111111-55555555--88888888---3~~-------------|
A|------55555555-00000000-111111111111-55555555--88888888---3~~-------------|
D|------55555555-00000000-111111111111-55555555--88888888---3~~-------------|

 Pre-Chorus 00:51
 Stacatto(Short and end Abruptly)
 The Close 1's are not to be confused with the number 11
E|--------------------------------------------------------------------------|
B|--------------------------------------------------------------------------|
G|--------------------------------------------------------------------------|
D|------11--11--11--11--1111\--55--55--55--55--5555/--11--11--11--11--1111\-|
A|------11--11--11--11--1111\--55--55--55--55--5555/--11--11--11--11--1111\-|
D|------11--11--11--11--1111\--55--55--55--55--5555/--11--11--11--11--1111\-|

E|--------------------------------------------------------------------------|
B|--------------------------------------------------------------------------|
G|--------------------------------------------------------------------------|
D|-------55--55\--88--88--8888/-11--11--11--11-1111\-55-55--55--55--5555/---|
A|-------55--55\--88--88--8888/-11--11--11--11-1111\-55-55--55--55--5555/---|
D|-------55--55\--88--88--8888/-11--11--11--11-1111\-55-55--55--55--5555/---|

E|--------------------------------------------------------------------------|
B|--------------------------------------------------------------------------|
G|--------------------------------------------------------------------------|
D|-------11--11--11--11--1111\--33--33--00--00--0000--1~---1~---------------|
A|-------11--11--11--11--1111\--33--33--00--00--0000--1~---1~---------------|
D|-------11--11--11--11--1111\--33--33--00--00--0000--1~---1~---------------|

 Chorus 01:15
E|---------------------------------------------------------------------------|
B|---------------------------------------------------------------------------|
G|---------------------------------------------------------------------------|
D|-------55555555555555/11111111111111\88888888888888/333333\444444----------|  Whole
A|-------55555555555555/11111111111111\88888888888888/333333\444444----------|  Thing
D|-------55555555555555/11111111111111\88888888888888/333333\444444----------|  2 Times

 End on
E|----------|
B|----------|
G|----------|
D|-------5~-|
A|-------5~-|
D|-------5~-|

-INTRO-again- 01:37

-Post Intro-again- 01:58

-Verse-again- 02:02

-Pre Chorus-again- 02:22

-Chorus-again- 02:45

Bridge 03:05

E|------------------------------------------------------------------------|
B|------------------------------------------------------------------------|
G|------------------------------------------------------------------------|
D|---5~-------1~------5~------1~-----5~---111-111-111-111-111-111-111-111-|
A|---5~-------1~------5~------1~-----5~---111-111-111-111-111-111-111-111-|
D|---5~-------1~------5~------1~-----5~---111-111-111-111-111-111-111-111-|

E|-----------------|------------------|-----------------|-----------------|
B|-----------------|------------------|-----------------|-----------------|
G|-----------------|----------3333333-|-----------------|-----------------|
D|-5---0-1---111---|-5---0-1----------|-5---0-1---111---|-5---0-1---------|
A|-5---0-1---111---|-5---0-1--1111111-|-5---0-1---111---|-5---0-1---------|
D|-5---0-1---111---|-5---0-1----------|-5---0-1---111---|-5---0-1---------|

-Outro-(Intro)- 03:48

            
            
Suggest correction
Creating personal tab
Creating personal tab
You can edit any tab online and save it as your Personal.

You can edit, replace or remove any tab part or add personal notes – all changes will be seen only by you.

Personal tabs can be accessed anytime from any device, even offline.
Learn more »
comments
print report bad tab
17 comments total. Showing first comments.
0 reply
hellhole1 10 May 24, 2008 05:29 AM

this version is the best one ive seen its 100%accurate

+1 reply
Last_In_Line44 40 May 27, 2008 04:44 AM

meh, i thought this one was in drop c

-1 reply
blink bassist 10 Sep 02, 2008 11:14 AM

This is 1000%, if it was in drop C

guest
You may want to rate the tab now too:
select rating
Wanna post a correction for this tab? Suggest correction