Oops, an error
Loading. Please wait.
We have an official Right Back At It Again tab made by UG professional guitarists. Check out the tab »
×
12,074 views 12 this week
2 commentsread comments
1 2 3 4 5
x 7
add to favorites
×
Save as Personal and add changes to this tab that will be seen only by you. Learn more ›
×
You can save this tab as Personal to edit and correct it or add notes. All changes will be seen only by you. Learn more »
launch autoscroll
font size
0
reset
guitar tuner
backing track
0:00
0:00
edit
Autoscroll
slow
fast
+/-
esc
set tempo
stop
Right Back At It Again - A Day To Remember
Tabbed by: This Kid
Tuning: Drop C (C G C F)

[Intro]
F|-----------------|-----------------|-----------------|-----------------|
C|-----------------|-----------------|-----------------|-----------------|
G|-----------------|-----------------|-----------------|-----------------|
C|-----------------|-----------------|-----------------|-8//-------------|
   1 + 2 + 3 + 4 +   1 + 2 + 3 + 4 +   1 + 2 + 3 + 4 +   1 + 2 + 3 + 4 +

[Breakdown]
F|---------------------------------|---------------------------------|
C|---------------------------------|---------------------------------|
G|-------------------------A-------|-----------------A---------------|
C|-3-3-3-3-----3-3-3-3-----3---3-3-|-3-3-3-3-----3-3-3---3-3-3-3-3-3-|
   1   +   2   +   3   +   4   +     1   +   2   +   3   +   4   +    

F|---------------------------------|---------------------------------|
C|---------------------------------|---------------------------------|
G|-------------------------A-------|---------------------------------|
C|-3-3-3-3-----3-3-3-3-----3---3-3-|-8-8-8-8-----8-8-8---7---8---10--|
   1   +   2   +   3   +   4   +     1   +   2   +   3   +   4   +    

F|---------------------------------|---------------------------------|
C|---------------------------------|---------------------------------|
G|-------------------------A-------|-----------------A---------------|
C|-3-3-3-3-----3-3-3-3-----3---3-3-|-3-3-3-3-----3-3-3---3-3-3-3-3-3-|
   1   +   2   +   3   +   4   +     1   +   2   +   3   +   4   +    

F|---------------------------------|---------------------------------|
C|---------------------------------|---------------------------------|
G|-------------------------A-------|---------------------------------|
C|-3-3-3-3-----3-3-3-3-----3---3-3-|-8-8-8-8-----8-8-8---7---8---10--|
   1   +   2   +   3   +   4   +     1   +   2   +   3   +   4   +    

[Interlude]
F|-----------------|-----------------|-----------------|-----------------|
C|-----------------|-----------------|-----------------|-----------------|
G|-Let it ring-----|-----------------|-----------------|-----------------|
C|-3---------------|-----------------|-----------------|-------------3-3-|
   1 + 2 + 3 + 4 +   1 + 2 + 3 + 4 +   1 + 2 + 3 + 4 +   1 + 2 + 3 + 4 +

F|-----------------|-----------------|-----------------|-----------------|
C|-----------------|-----------------|-----------------|-----------------|
G|-----------------|-----------------|-----------------|-----------------|
C|-3---------------|-----------------|-----------------|-----------------|
   1 + 2 + 3 + 4 +   1 + 2 + 3 + 4 +   1 + 2 + 3 + 4 +   1 + 2 + 3 + 4 +

[Verse]
F|-----------------|-----------------|-----------------|-----------------|
C|-----------------|-----------------|-----------------|-----------------|
G|-1-1-1-1-1-1-1-1-|-----------------|-3-3-3-3-3-3-3-3-|-5-5-5-5-5\3-3-3-|
C|-----------------|-3-3-3-3-3-3-3-3-|-----------------|-----------------|
   1 + 2 + 3 + 4 +   1 + 2 + 3 + 4 +   1 + 2 + 3 + 4 +   1 + 2 + 3 + 4 +

F|-----------------|-----------------|-----------------|-----------------|
C|-----------------|-----------------|-----------------|-----------------|
G|-1-1-1-1-1-1-1-1-|-----------------|-3-3-3-3-3-3-3-3-|-3-3-3-3-3-3-3-3-|
C|-----------------|-3-3-3-3-3-3-3-3-|-----------------|-----------------|
   1 + 2 + 3 + 4 +   1 + 2 + 3 + 4 +   1 + 2 + 3 + 4 +   1 + 2 + 3 + 4 +

F|-----------------|-----------------|-----------------|-----------------|
C|-----------------|-----------------|-----------------|-----------------|
G|-1-1-1-1-1-1-1-1-|-----------------|-3-3-3-3-3-3-3-3-|-5-5-5-5-5\3-3-3-|
C|-----------------|-3-3-3-3-3-3-3-3-|-----------------|-----------------|
   1 + 2 + 3 + 4 +   1 + 2 + 3 + 4 +   1 + 2 + 3 + 4 +   1 + 2 + 3 + 4 +

F|-----------------|-----------------|-----------------|-----------------|
C|-----------------|-----------------|-----------------|-----------------|
G|-1-1-1-1-1-1-1-1-|-----------------|-3-3-3-3-3-3-3-3-|-3-3-3-3-3-3-3-3-|
C|-----------------|-3-3-3-3-3-3-3-3-|-----------------|-----------------|
   1 + 2 + 3 + 4 +   1 + 2 + 3 + 4 +   1 + 2 + 3 + 4 +   1 + 2 + 3 + 4 +

[Chorus]
F|-----------------|-----------------|-----------------|-----------------|
C|-----------------|-----------------|-----------------|-----------------|
G|-1-1-1-1-1-1-1-1-|-----------------|-3-3-3-3-3-3-3-3-|-5-5-5-5-5\3-3-3-|
C|-----------------|-3-3-3-3-3-3-3-3-|-----------------|-----------------|
   1 + 2 + 3 + 4 +   1 + 2 + 3 + 4 +   1 + 2 + 3 + 4 +   1 + 2 + 3 + 4 +

F|-----------------|-----------------|-----------------|-----------------|
C|-----------------|-----------------|-----------------|-----------------|
G|-1-1-1-1-1-1-1-1-|-----------------|-3-3-3-3-3-3-3-3-|-3-3-3-3-3-3-3-3-|
C|-----------------|-3-3-3-3-3-3-3-3-|-----------------|-----------------|
   1 + 2 + 3 + 4 +   1 + 2 + 3 + 4 +   1 + 2 + 3 + 4 +   1 + 2 + 3 + 4 +

F|-----------------|-----------------|-----------------|-----------------|
C|-----------------|-----------------|-----------------|-----------------|
G|-1-1---1-1-1-1-1-|-----------------|---3---3-3-3-3-3-|---5-5-5-5\3-3-3-|
C|-----------------|---3---3-3-3-3-3-|-----------------|-----------------|
   1 + 2 + 3 + 4 +   1 + 2 + 3 + 4 +   1 + 2 + 3 + 4 +   1 + 2 + 3 + 4 +

F|-----------------|-----------------|-----------------|-----------------|
C|-----------------|-----------------|-----------------|-----------------|
G|-1-1---1-1-1-1-1-|-----------------|-3-3-3-3-3-3-3-3-|-3-3-3-3-3-3-3-3-|
C|-----------------|---3---3-3-3-3-3-|-----------------|-----------------|
   1 + 2 + 3 + 4 +   1 + 2 + 3 + 4 +   1 + 2 + 3 + 4 +   1 + 2 + 3 + 4 +

[Verse]
F|-----------------|-----------------|-----------------|-----------------|
C|-----------------|-----------------|-----------------|-----------------|
G|-1-1-1-1-1-1-1-1-|-----------------|-3-3-3-3-3-3-3-3-|-5-5-5-5-5\3-3-3-|
C|-----------------|-3-3-3-3-3-3-3-3-|-----------------|-----------------|
   1 + 2 + 3 + 4 +   1 + 2 + 3 + 4 +   1 + 2 + 3 + 4 +   1 + 2 + 3 + 4 +

F|-----------------|-----------------|-----------------|-----------------|
C|-----------------|-----------------|-----------------|-----------------|
G|-1-1-1-1-1-1-1-1-|-----------------|-3-3-3-3-3-3-3-3-|-3-3-3-3-3-3-3-3-|
C|-----------------|-3-3-3-3-3-3-3-3-|-----------------|-----------------|
   1 + 2 + 3 + 4 +   1 + 2 + 3 + 4 +   1 + 2 + 3 + 4 +   1 + 2 + 3 + 4 +

F|-----------------|-----------------|-----------------|-----------------|
C|-----------------|-----------------|-----------------|-----------------|
G|-1-1---1-1-1---1-|-----------------|-3-3---3-3-3---3-|-5-5---5-5\3---3-|
C|-----------------|-3-3---3-3-3---3-|-----------------|-----------------|
   1 + 2 + 3 + 4 +   1 + 2 + 3 + 4 +   1 + 2 + 3 + 4 +   1 + 2 + 3 + 4 +

F|-----------------|-----------------|-----------------|-----------------|
C|-----------------|-----------------|-----------------|-----------------|
G|-1-1---1-1-1---1-|-----------------|-3-3-3-3-3-3-3-3-|-3-3-3-3-3-3-3-3-|
C|-----------------|-3-3---3-3-3---3-|-----------------|-----------------|
   1 + 2 + 3 + 4 +   1 + 2 + 3 + 4 +   1 + 2 + 3 + 4 +   1 + 2 + 3 + 4 + 

[Chorus]
F|-----------------|-----------------|-----------------|-----------------|
C|-----------------|-----------------|-----------------|-----------------|
G|-1-1-1-1-1-1-1-1-|-----------------|-3-3-3-3-3-3-3-3-|-5-5-5-5-5\3-3-3-|
C|-----------------|-3-3-3-3-3-3-3-3-|-----------------|-----------------|
   1 + 2 + 3 + 4 +   1 + 2 + 3 + 4 +   1 + 2 + 3 + 4 +   1 + 2 + 3 + 4 +

F|-----------------|-----------------|-----------------|-----------------|
C|-----------------|-----------------|-----------------|-----------------|
G|-1-1-1-1-1-1-1-1-|-----------------|-3-3-3-3-3-3-3-3-|-3-3-3-3-3-3-3-3-|
C|-----------------|-3-3-3-3-3-3-3-3-|-----------------|-----------------|
   1 + 2 + 3 + 4 +   1 + 2 + 3 + 4 +   1 + 2 + 3 + 4 +   1 + 2 + 3 + 4 +

F|-----------------|-----------------|-----------------|-----------------|
C|-----------------|-----------------|-----------------|-----------------|
G|-1-1---1-1-1-1-1-|-----------------|---3---3-3-3-3-3-|---5-5-5-5\3-3-3-|
C|-----------------|---3---3-3-3-3-3-|-----------------|-----------------|
   1 + 2 + 3 + 4 +   1 + 2 + 3 + 4 +   1 + 2 + 3 + 4 +   1 + 2 + 3 + 4 +

F|-----------------|-----------------|-----------------|-----------------|
C|-----------------|-----------------|-----------------|-----------------|
G|-1-1---1-1-1-1-1-|-----------------|-3-3-3-3-3-3-3-3-|-3-3-3-3-3-3-3-3-|
C|-----------------|---3---3-3-3-3-3-|-----------------|-----------------|
   1 + 2 + 3 + 4 +   1 + 2 + 3 + 4 +   1 + 2 + 3 + 4 +   1 + 2 + 3 + 4 +

[Solo]
F|-----------------|-----------------|-----------------|-----------------|
C|-----------------|-----------------|-----------------|-----------------|
G|-1-1-1-1-1-1-1-1-|-----------------|-3-3-3-3-3-3-3-3-|-5-5-5-5-5\3-3-3-|
C|-----------------|-3-3-3-3-3-3-3-3-|-----------------|-----------------|
   1 + 2 + 3 + 4 +   1 + 2 + 3 + 4 +   1 + 2 + 3 + 4 +   1 + 2 + 3 + 4 +

F|-----------------|-----------------|-----------------|-----------------|
C|-----------------|-----------------|-----------------|-----------------|
G|-1-1-1-1-1-1-1-1-|-----------------|-3-3-3-3-3-3-3-3-|-3-3-3-3-3-3-3-3-|
C|-----------------|-3-3-3-3-3-3-3-3-|-----------------|-----------------|
   1 + 2 + 3 + 4 +   1 + 2 + 3 + 4 +   1 + 2 + 3 + 4 +   1 + 2 + 3 + 4 +

F|-----------------|-----------------|-----------------|-----------------|
C|-----------------|-----------------|-----------------|-----------------|
G|-1-1---1-1-1-1-1-|-----------------|---3---3-3-3-3-3-|---5-5-5-5\3-3-3-|
C|-----------------|---3---3-3-3-3-3-|-----------------|-----------------|
   1 + 2 + 3 + 4 +   1 + 2 + 3 + 4 +   1 + 2 + 3 + 4 +   1 + 2 + 3 + 4 +

F|-----------------|-----------------|-----------------|-----------------|
C|-----------------|-----------------|-----------------|-----------------|
G|-1-1---1-1-1-1-1-|-----------------|-3-3-3-3-3-3-3-3-|-3-3-3-3-3-3-3-3-|
C|-----------------|---3---3-3-3-3-3-|-----------------|-----------------|
   1 + 2 + 3 + 4 +   1 + 2 + 3 + 4 +   1 + 2 + 3 + 4 +   1 + 2 + 3 + 4 +

[Chorus]
F|-----------------|-----------------|-----------------|-----------------|
C|-----------------|-----------------|-----------------|-----------------|
G|-----------------|-----------------|-----------------|-3h5-----5p3-----|
C|-----------------|-----------------|-----------------|-----------------|
   1 + 2 + 3 + 4 +   1 + 2 + 3 + 4 +   1 + 2 + 3 + 4 +   1 + 2 + 3 + 4 +

F|-----------------|-----------------|-----------------|-----------------|
C|-----------------|-----------------|-----------------|-----------------|
G|-1-1-1-1-1-1-1-1-|-----------------|-3-3-3-3-3-3-3-3-|-3-3-3-3-3-3-3-3-|
C|-----------------|-3-3-3-3-3-3-3-3-|-----------------|-----------------|
   1 + 2 + 3 + 4 +   1 + 2 + 3 + 4 +   1 + 2 + 3 + 4 +   1 + 2 + 3 + 4 +

F|-----------------|-----------------|-----------------|-----------------|
C|-----------------|-----------------|-----------------|-----------------|
G|-1-1---1-1-1-1-1-|-----------------|---3---3-3-3-3-3-|---5-5-5-5\3-3-3-|
C|-----------------|---3---3-3-3-3-3-|-----------------|-----------------|
   1 + 2 + 3 + 4 +   1 + 2 + 3 + 4 +   1 + 2 + 3 + 4 +   1 + 2 + 3 + 4 +

F|-----------------|-----------------|-----------------|-----------------|
C|-----------------|-----------------|-----------------|-----------------|
G|-1-1---1-1-1-1-1-|-----------------|-3-3-3-3-3-3-3-3-|-----------------|
C|-----------------|---3---3-3-3-3-3-|-----------------|-12//------------|
   1 + 2 + 3 + 4 +   1 + 2 + 3 + 4 +   1 + 2 + 3 + 4 +   1 + 2 + 3 + 4 +

[Breakdown]
F|---------------------------------|---------------------------------|
C|---------------------------------|---------------------------------|
G|-------------------------A-------|-----------------A---------------|
C|-3-3-3-3-----3-3-3-3-----3---3-3-|-3-3-3-3-----3-3-3---3-3-3-3-3-3-|
   1   +   2   +   3   +   4   +     1   +   2   +   3   +   4   +    

F|---------------------------------|---------------------------------|
C|---------------------------------|---------------------------------|
G|-------------------------A-------|---------------------------------|
C|-3-3-3-3-----3-3-3-3-----3---3-3-|-8-8-8-8-----8-8-8---7---8---10--|
   1   +   2   +   3   +   4   +     1   +   2   +   3   +   4   +    

F|---------------------------------|---------------------------------|
C|---------------------------------|---------------------------------|
G|-------------------------A-------|-----------------A---------------|
C|-3-3-3-3-----3-3-3-3-----3---3-3-|-3-3-3-3-----3-3-3---3-3-3-3-3-3-|
   1   +   2   +   3   +   4   +     1   +   2   +   3   +   4   +    

F|---------------------------------|---------------------------------|
C|---------------------------------|---------------------------------|
G|-------------------------A-------|---------------------------------|
C|-3-3-3-3-----3-3-3-3-----3---3-3-|-8-8-8-8-----8-8-8---7---8---10--|
   1   +   2   +   3   +   4   +     1   +   2   +   3   +   4   +    

F|-----------------|-----------------|-----------------|-----------------|
C|-----------------|-----------------|-----------------|-----------------|
G|-----------------|-Let it ring-----|-----------------|-----------------|
C|-----------------|-3---------------|-----------------|-----------------|
   1 + 2 + 3 + 4 +   1 + 2 + 3 + 4 +   1 + 2 + 3 + 4 +   1 + 2 + 3 + 4 +

************************************

| /  Slide up
| \  Slide down
| h  Hammer-on
| p  Pull-off

************************************

            
            
Suggest correction
Creating personal tab
Creating personal tab
You can edit any tab online and save it as your Personal.

You can edit, replace or remove any tab part or add personal notes – all changes will be seen only by you.

Personal tabs can be accessed anytime from any device, even offline.
Learn more »
comments
print report bad tab
2 comments total.
+3 reply
kubariseordie 10 Oct 17, 2013 01:21 AM

well done, nice tab! This song is really fun to play.

+3 reply
Jrex1514 72 Oct 22, 2013 05:07 PM

I've been waiting for tabs for songs off CC for so long and this is great

guest
You may want to rate the tab now too:
select rating
Wanna post a correction for this tab? Suggest correction