Oops, an error
Loading. Please wait.
We have an official Violence Enough Is Enough tab made by UG professional guitarists. Check out the tab »
×
148 views 3 this week
no commentswrite comment
1 2 3 4 5
3 more votes to show rating
add to favorites
×
Save as Personal and add changes to this tab that will be seen only by you. Learn more ›
×
You can save this tab as Personal to edit and correct it or add notes. All changes will be seen only by you. Learn more »
launch autoscroll
font size
0
reset
guitar tuner
edit
Autoscroll
slow
fast
+/-
esc
set tempo
stop
-------------------------------------------------------------------------------
                             VIOLENCE (ENOUGH IS ENOUGH) - Band Name
-------------------------------------------------------------------------------
Tabbed by: cesare_moon
E-mail: 

Artist: A Day To Remember
Album: Common Courtesy
Year: 2013

There was an existing tab of this song prior to this upload but it was not formatted correctly and
very hard to follow. I have uploaded what I think is more accurate and much easier to read. 

Tuning: A#, F, A#, D#

Intro - 00.13 - 00.36

D#|--------------------------------------------------------------------------------------|
A#|--------------------------------------------------------------------------------------|
F |--------------------------------------------------------------------------------------|
A#|-0-0-0-0-0-0-0-0---0---0--0--0-0-0-0-0---5-5-5-5-5-5-5-5---5---5--5--5-5-5-5-5--------|

D#|--------------------------------------------------------------------------------------|
A#|--------------------------------------------------------------------------------------|
F |--------------------------------------------------------------------------------------|
A#|-8-8-8-8-8-8-8-8---8---8--8--8-8-8-8-8---7-7-7-7-7-7-7-7---7---7--7--7-7-7-7-7--------|

D#|--------------------------------------------------------------------------------------|
A#|--------------------------------------------------------------------------------------|
F |--------------------------------------------------------------------------------------|
A#|-0-0-0-0-0-0-0-0---0---0--0--0-0-0-0-0---5-5-5-5-5-5-5-5---5---5--5--5-5-5-5-5--------|

D#|--------------------------------------------------------------------------------------|
A#|--------------------------------------------------------------------------------------|
F |--------------------------------------------------------------------------------------|
A#|-8-8-8-8-8-8-8-8---8---8--8--8-8-8-8-8---7-7-7-7-7-7-7-7---7---7--7--7-7-7-7-7--------|

Verse - 00.36 - 01.00

D#|--------------------------------------------------------------------------------------|
A#|--------------------------------------------------------------------------------------|
F |--------------------------------------------------------------------------------------|
A#|-0-0-0-0-0-0-0-0-0-0-0-0-0-0-0-0-0-0-0-0-0-0-0-0-0-0-0-0-0-0-0-0----------------------|

D#|--------------------------------------------------------------------------------------|
A#|--------------------------------------------------------------------------------------|
F |--------------------------------------------------------------------------------------|
A#|-8-8-8-8-8-8-8-8-8-8-8-8-8-8-8-8-7-7-7-7-7-7-7-7-7-7-7-7-7-7-7-7----------------------|

D#|--------------------------------------------------------------------------------------|
A#|--------------------------------------------------------------------------------------|
F |--------------------------------------------------------------------------------------|
A#|-0-0-0--0-0-0---0--0--0-0-0-0-0--0-0-0--0-0-0---0--0--0-0-0-0-0-0---------------------|

D#|--------------------------------------------------------------------------------------|
A#|--------------------------------------------------------------------------------------|
F |--------------------------------------------------------------------------------------|
A#|-8-8-8--8-8-8---8--8--8-8-8-8-8--7-7-7--7-7-7---7--7--7-7-7-7-7-7---------------------|

Pre-Chorus - 01.00 - 01.17

D#|--------------------------------------------------------------------------------------|
A#|--------------------------------------------------------------------------------------|
F |--------------------------------------------------------------------------------------|
A#|-5-5-5-5-5-5-5-5-5-5-5-5-5-5-5-5-8-8-8-8-8-8-8-8-8-8-8-8-8-8-8-8----------------------|

D#|--------------------------------------------------------------------------------------|
A#|--------------------------------------------------------------------------------------|
F |---------------------------------3-3-3-3-3-3-3-3-3-3-3-3-3-3-3-3----------------------|
A#|-0-0-0-0-0-0-0-0-0-0-0-0-0-0-0-0------------------------------------------------------|

D#|--------------------------------------------------------------------------------------|
A#|--------------------------------------------------------------------------------------|
F |--------------------------------------------------------------------------------------|
A#|-5-5-5-5-5-5-5-5-5-5-5-5-5-5-5-5-8~---------------------------------------------------|

Chorus - 01.17 - 01.43 

D#|--------------------------------------------------------------------------------------|
A#|--------------------------------------------------------------------------------------|
F |--------------------------------------------------------------------------------------|
A#|-0-0-0-0-0-0-0-0---0---0--0--0-0-0-0-0---5-5-5-5-5-5-5-5---5---5--5--5-5-5-5-5--------|

D#|--------------------------------------------------------------------------------------|
A#|--------------------------------------------------------------------------------------|
F |--------------------------------------------------------------------------------------|
A#|-8-8-8-8-8-8-8-8---8---8--8--8-8-8-8-8---7-7-7-7-7-7-7-7---7---7--7--7-7-7-7-7--------|

D#|--------------------------------------------------------------------------------------|
A#|--------------------------------------------------------------------------------------|
F |--------------------------------------------------------------------------------------|
A#|-0-0-0-0-0-0-0-0---0---0--0--0-0-0-0-0---5-5-5-5-5-5-5-5---5---5--5--5-5-5-5-5--------|

D#|--------------------------------------------------------------------------------------|
A#|--------------------------------------------------------------------------------------|
F |--------------------------------------------------------------------------------------|
A#|-8-8-8-8-8-8-8-8---8---8--8--8-8-8-8-8---7-7-7-7-7-7-7-7---7---7--7--7-7-7-7-7--------|

D#|----------------------|
A#|----------------------|
F |----------------------|
A#|-----0-------0--------|

Verse - 01.43 - 02.07

D#|--------------------------------------------------------------------------------------|
A#|--------------------------------------------------------------------------------------|
F |--------------------------------------------------------------------------------------|
A#|-0-0-0-0-0-0-0-0-0-0-0-0-0-0-0-0-0-0-0-0-0-0-0-0-0-0-0-0-0-0-0-0----------------------|

D#|--------------------------------------------------------------------------------------|
A#|--------------------------------------------------------------------------------------|
F |--------------------------------------------------------------------------------------|
A#|-8-8-8-8-8-8-8-8-8-8-8-8-8-8-8-8-7-7-7-7-7-7-7-7-7-7-7-7-7-7-7-7----------------------|

D#|--------------------------------------------------------------------------------------|
A#|--------------------------------------------------------------------------------------|
F |--------------------------------------------------------------------------------------|
A#|-0~----------0-0-0-0-0-0-0-0~-------0-1--1--1-1-------0---0---0-0---------------------|

D#|--------------------------------------------------------------------------------------|
A#|--------------------------------------------------------------------------------------|
F |--------------------------------------------------------------------------------------|
A#|-------------0-0-0-0-0-0-0-0--------0---0------0-0------------------------------------|

Pre-Chorus - 02.07 - 02.24

D#|--------------------------------------------------------------------------------------|
A#|--------------------------------------------------------------------------------------|
F |--------------------------------------------------------------------------------------|
A#|-5-5-5-5-5-5-5-5-5-5-5-5-5-5-5-5-8-8-8-8-8-8-8-8-8-8-8-8-8-8-8-8----------------------|

D#|--------------------------------------------------------------------------------------|
A#|--------------------------------------------------------------------------------------|
F |---------------------------------3-3-3-3-3-3-3-3-3-3-3-3-3-3-3-3----------------------|
A#|-0-0-0-0-0-0-0-0-0-0-0-0-0-0-0-0------------------------------------------------------|

D#|--------------------------------------------------------------------------------------|
A#|--------------------------------------------------------------------------------------|
F |--------------------------------------------------------------------------------------|
A#|-5-5-5-5-5-5-5-5-5-5-5-5-5-5-5-5-8~---------------------------------------------------|

Chorus - 02.24 - 02.47

D#|--------------------------------------------------------------------------------------|
A#|--------------------------------------------------------------------------------------|
F |--------------------------------------------------------------------------------------|
A#|-0-0-0-0-0-0-0-0---0---0--0--0-0-0-0-0---5-5-5-5-5-5-5-5---5---5--5--5-5-5-5-5--------|

D#|--------------------------------------------------------------------------------------|
A#|--------------------------------------------------------------------------------------|
F |--------------------------------------------------------------------------------------|
A#|-8-8-8-8-8-8-8-8---8---8--8--8-8-8-8-8---7-7-7-7-7-7-7-7---7---7--7--7-7-7-7-7--------|

D#|--------------------------------------------------------------------------------------|
A#|--------------------------------------------------------------------------------------|
F |--------------------------------------------------------------------------------------|
A#|-0-0-0-0-0-0-0-0---0---0--0--0-0-0-0-0---5-5-5-5-5-5-5-5---5---5--5--5-5-5-5-5--------|

D#|--------------------------------------------------------------------------------------|
A#|--------------------------------------------------------------------------------------|
F |--------------------------------------------------------------------------------------|
A#|-8-8-8-8-8-8-8-8---8---8--8--8-8-8-8-8---7-7-7-7-7-7-7-7---7---7--7--7-7-7-7-7--------|

Bridge - 02.47 - 03.00

D#|------------------------------------------------------------------------|
A#|------------------------------------------------------------------------|
F |------------------------------------------------------------------------|
A#|-0-0-0--0-0-0--0-0-0--0-0-0--0-0-0--0-0-0--0-0--0-0---0-0---------------| x2

D#|------------------------------------------------------------------------|
A#|------------------------------------------------------------------------|
F |------------------------------------------------------------------------|
A#|-0-0-0-0-0-0-0-0-0-0-0-0-0-0-0-0-0-0-0-0--0-0-0-0-0-0-0-0---------------|

Breakdown - 03.00 - 03.27 

D#|------------------------------------------------------------------------------|
A#|------------------------------------------------------------------------------|
F |------------------------------------------------------------------------------|
A#|-0-0----0-0--------0--0-0----0-0---0---0-0---0-0---0---0-0---0-0--------------| x8

Rest

Chorus - 03.36 - 03.51

D#|----------------------|
A#|----------------------|
F |----------------------|
A#|-----7-------7--------|

D#|--------------------------------------------------------------------------------------|
A#|--------------------------------------------------------------------------------------|
F |--------------------------------------------------------------------------------------|
A#|-0-0-0-0-0-0-0-0---0---0--0--0-0-0-0-0---5-5-5-5-5-5-5-5---5---5--5--5-5-5-5-5--------|

D#|--------------------------------------------------------------------------------------|
A#|--------------------------------------------------------------------------------------|
F |--------------------------------------------------------------------------------------|
A#|-8-8-8-8-8-8-8-8---8---8--8--8-8-8-8-8---7-7-7-7-7-7-7-7---7---7--7--7-7-7-7-7--------|

Outro - 03.51 - End. 

D#|------------------------------------------------------------------------------|
A#|------------------------------------------------------------------------------|
F |------------------------------------------------------------------------------|
A#|-0-0----0-0--------0--0-0----0-0---0---0-0---0-0---0---0-0---0-0--------------| x2

Thank you! :)

| /  slide up
| \  slide down
| h  hammer-on
| p  pull-off
| ~  vibrato
| +  harmonic
| x  Mute note
===============================================================================

            
            
Suggest correction
Creating personal tab
Creating personal tab
You can edit any tab online and save it as your Personal.

You can edit, replace or remove any tab part or add personal notes – all changes will be seen only by you.

Personal tabs can be accessed anytime from any device, even offline.
Learn more »
Give kudos to tab author, rate the tab!
1 2 3 4 5
comments
print report bad tab
guest
You may want to rate the tab now too:
select rating
Wanna post a correction for this tab? Suggest correction