Oops, an error
Loading. Please wait.

Westfall tab

version 2
version 2

Whole song

Interactive

383 views 3 this week
no commentswrite comment
1 2 3 4 5
2 more votes to show rating
add to favorites
×
Save as Personal and add changes to this tab that will be seen only by you. Learn more ›
×
You can save this tab as Personal to edit and correct it or add notes. All changes will be seen only by you. Learn more »
launch autoscroll
font size
0
reset
how to read this tab
guitar tuner
edit
Autoscroll
slow
fast
+/-
esc
set tempo
stop
-------------------------------------------------------------------------------
                             Westfall - A Day To Remember
-------------------------------------------------------------------------------
Tabbed by: Pinguruh
E-mail: pin9uruh@googlemail.com

Tuning: Drop D

Intro

Guitar 1:
e|------------------|------------------|----------------------|-----------------------|
B|------------------|------------------|----------------------|-----------------------|
G|------------------|------------------|----------------------|-----------------------|
D|---------10-------|---------10-------|------------10--------|-------10---10-10------|
A|-----8------8---8-|-----8------8---8-|-------8-------8----8-|-------8----8--8-----8-|
D|-8-8---8------8---|-8-8---8------8---|-10-10---10------10---|-10-10----10------10---|

e|------------------|------------------|------------------|------------------|
B|------------------|------------------|------------------|------------------|
G|------------------|------------------|------------------|------------------|
D|---------10-------|---------10-------|---------10-------|---------10-------|
A|-----8------8---8-|-----8------8---8-|-----8------8---8-|-----8------8---8-|
D|-7-7---7------7---|-7-7---7------7---|-8-8---8------8---|-8-8---8------8---|

e|------------------|------------------|----------------------|----------------------|
B|------------------|------------------|----------------------|----------------------|
G|------------------|------------------|----------------------|----------------------|
D|---------10-------|---------10-------|------------10--------|----------10----------|
A|-----8------8---8-|-----8------8---8-|-------8-------8----8-|-------8-----8----8---|
D|-8-8---8------8---|-8-8---8------8---|-10-10---10------10---|-10-10---10----10-----|

e|------------------|------------------|------------------|------------------|
B|------------------|------------------|------------------|------------------|
G|------------------|------------------|------------------|------------------|
D|---------10-------|---------10-------|---------10-------|---------10-------|
A|-----8------8---8-|-----8------8---8-|-----8------8---8-|-----8------8---8-|
D|-7-7---7------7---|-7-7---7------7---|-8-8---8------8---|-8-8---8------8---|

Guitar 2 (Palm muted) :
(plays at second time only)
e|-------------------------|-------------------------|-------------------------|-------------------------|
B|-------------------------|-11-11-11-11-10-10-10-10-|-------------------------|-13-13-13-13-10-10-10-10-|
G|-10-10-10-10-10-10-10-10-|-------------------------|-10-10-10-10-10-10-10-10-|-------------------------|
D|-------------------------|-------------------------|-------------------------|-------------------------|
A|-------------------------|-------------------------|-------------------------|-------------------------|
D|-------------------------|-------------------------|-------------------------|-------------------------|

e|-------------------------|-------------------------|-------------------------|-------------------------|
B|-------------------------|-11-11-11-11-10-11-10-10-|-------------------------|-------------------------|
G|-10-10-10-10-10-10-10-10-|-------------------------|-10-10-10-10-10-10-10-10-|-10-10-10-10-10-10-10-10-|
D|-------------------------|-------------------------|-------------------------|-------------------------|
A|-------------------------|-------------------------|-------------------------|-------------------------|
D|-------------------------|-------------------------|-------------------------|-------------------------|

Verse

Guitar 1:
e|------------------|------------------|----------------------|----------------------|
B|------------------|------------------|----------------------|----------------------|
G|------------------|------------------|----------------------|----------------------|
D|---------10-------|---------10-------|------------10--------|----------10----------|
A|-----8------8---8-|-----8------8---8-|-------8-------8----8-|-------8-----8----8---|
D|-8-8---8------8---|-8-8---8------8---|-10-10---10------10---|-10-10---10----10-----|

e|------------------|------------------|------------------|------------------|
B|------------------|------------------|------------------|------------------|
G|------------------|------------------|------------------|------------------|
D|---------10-------|---------10-------|---------10-------|---------10-------|
A|-----8------8---8-|-----8------8---8-|-----8------8---8-|-----8------8---8-|
D|-7-7---7------7---|-7-7---7------7---|-8-8---8------8---|-8-8---8------8---|

e|------------------|------------------|----------------------|----------------------|
B|------------------|------------------|----------------------|----------------------|
G|------------------|------------------|----------------------|----------------------|
D|---------10-------|---------10-------|------------10--------|----------10----------|
A|-----8------8---8-|-----8------8---8-|-------8-------8----8-|-------8-----8----8---|
D|-8-8---8------8---|-8-8---8------8---|-10-10---10------10---|-10-10---10----10-----|

e|------------------|------------------|-------------------------|-------------X-X-X-X-|
B|------------------|------------------|-------------------------|-------------X-X-X-X-|
G|------------------|------------------|-10-10-10-10-10-10-10-10-|-10-10-10-10-X-X-X-X-|
D|---------10-------|---------10-------|-10-10-10-10-10-10-10-10-|-10-10-10-10-X-X-X-X-|
A|-----8------8---8-|-----8------8---8-|-8--8--8--8--8--8--8--8--|-8--8--8--8--X-X-X-X-|
D|-7-7---7------7---|-7-7---7------7---|-8--8--8--8--8--8--8--8--|-8--8--8--8--X-X-X-X-|

Guitar 2:
e|-------------------------|-------------------------|-------------------------|-------------------------|
B|-------------------------|-11-11-11-11-10-11-10-10-|-------------------------|-13-13-13-13-10-10-10-10-|
G|-10-10-10-10-10-10-10-10-|-------------------------|-10-10-10-10-10-10-10-10-|-------------------------|
D|-------------------------|-------------------------|-------------------------|-------------------------|
A|-------------------------|-------------------------|-------------------------|-------------------------|
D|-------------------------|-------------------------|-------------------------|-------------------------|

e|-------------------------|-------------------------|-------------------------|-------------------------|
B|-------------------------|-11-11-11-11-10-11-10-10-|-------------------------|-------------------------|
G|-10-10-10-10-10-10-10-10-|-------------------------|-10-10-10-10-10-10-10-10-|-10-10-10-10-10-10-10-10-|
D|-------------------------|-------------------------|-------------------------|-------------------------|
A|-------------------------|-------------------------|-------------------------|-------------------------|
D|-------------------------|-------------------------|-------------------------|-------------------------|
(Here you can leave the 10s on G-string out)
e|-------------------------|-------------------------|-------------------------|------------------------|
B|-------13-------11----10-|-------13-------11----10-|-------13-------11----10-|-------11-------10----6-|
G|-10-10----10-10----10----|-10-10----10-10----10----|-10-10----10-10----10----|-10-10----10-10----10---|
D|-------------------------|-------------------------|-------------------------|------------------------|
A|-------------------------|-------------------------|-------------------------|------------------------|
D|-------------------------|-------------------------|-------------------------|------------------------|
                                                      (Here you should play the 10s on G-string) 
e|-------------------------|-------------------------|-------------------------|-------------X-X-X-X-|
B|-------13-------11----10-|-------13-------11----10-|-------------------------|-------------X-X-X-X-|
G|-10-10----10-10----10----|-10-10----10-10----10----|-10-10-10-10-10-10-10-10-|-10-10-10-10-X-X-X-X-|
D|-------------------------|-------------------------|-10-10-10-10-10-10-10-10-|-10-10-10-10-X-X-X-X-|
A|-------------------------|-------------------------|-8--8--8--8--8--8--8--8--|-8--8--8--8--X-X-X-X-|
D|-------------------------|-------------------------|-8--8--8--8--8--8--8--8--|-8--8--8--8--X-X-X-X-|

Chorus

Guitar 1&2:
(they play the same imo)
e|------------------|---------------|------------------|----------------|
B|------------------|---------------|------------------|----------------|
G|-10--10--X--10-10-|-10--9-9h10----|-10--10--X--10-10-|-10--10-10p9----|
D|-10--10--X--10-10-|-10---------10-|-10--10--X--10-10-|-10----------10-|
A|-8---8---X--8--8--|-8-------------|-8---8---X--8--8--|-8--------------|
D|-8---8---X--8--8--|-8-------------|-10--10--X--10-10-|-10-------------|

e|------------------|-----------------|------------------|----------------|
B|------------------|-----11-11p10----|------------------|----------------|
G|-10--10--X--10-10-|-10-----------10-|-10--10--X--10-10-|-10-----10p9----|
D|-10--10--X--10-10-|-10--------------|-10--10--X--10-10-|-10----------10-|
A|-8---8---X--8--8--|-8---------------|-8---8---X--8--8--|-8--------------|
D|-7---7---X--7--7--|-7---------------|-8---8---X--8--8--|-10-------------|

e|------------------|---------------|------------------|----------------|
B|------------------|---------------|------------------|----------------|
G|-10--10--X--10-10-|-10--9-9h10----|-10--10--X--10-10-|-10--10-10p9----|
D|-10--10--X--10-10-|-10---------10-|-10--10--X--10-10-|-10----------10-|
A|-8---8---X--8--8--|-8-------------|-8---8---X--8--8--|-8--------------|
D|-8---8---X--8--8--|-8-------------|-10--10--X--10-10-|-10-------------|

e|------------------|-----------------|------------------|----------------|
B|------------------|-----11-11p10----|------------------|----------------|
G|-10--10--X--10-10-|-10-----------10-|-10--10--X--10-10-|-10-----10p9----|
D|-10--10--X--10-10-|-10--------------|-10--10--X--10-10-|-10----------10-|
A|-8---8---X--8--8--|-8---------------|-8---8---X--8--8--|-8--------------|
D|-7---7---X--7--7--|-7---------------|-8---8---X--8--8--|-10-------------|

Pre-Verse:

Guitar 1 only:
e|------------------|------------------|----------------------|----------------------|
B|------------------|------------------|----------------------|----------------------|
G|------------------|------------------|----------------------|----------------------|
D|---------10-------|---------10-------|------------10--------|----------10----------|
A|-----8------8---8-|-----8------8---8-|-------8-------8----8-|-------8-----8----8---|
D|-8-8---8------8---|-8-8---8------8---|-10-10---10------10---|-10-10---10----10-----|

e|------------------|------------------|------------------|------------------|
B|------------------|------------------|------------------|------------------|
G|------------------|------------------|------------------|------------------|
D|---------10-------|---------10-------|---------10-------|---------10-------|
A|-----8------8---8-|-----8------8---8-|-----8------8---8-|-----8------8---8-|
D|-7-7---7------7---|-7-7---7------7---|-8-8---8------8---|-8-8---8------8---|

Verse:

Guitar 1:
e|------------------|------------------|----------------------|----------------------|
B|------------------|------------------|----------------------|----------------------|
G|------------------|------------------|----------------------|----------------------|
D|---------10-------|---------10-------|------------10--------|----------10----------|
A|-----8------8---8-|-----8------8---8-|-------8-------8----8-|-------8-----8----8---|
D|-8-8---8------8---|-8-8---8------8---|-10-10---10------10---|-10-10---10----10-----|

e|------------------|------------------|------------------|------------------|
B|------------------|------------------|------------------|------------------|
G|------------------|------------------|------------------|------------------|
D|---------10-------|---------10-------|---------10-------|---------10-------|
A|-----8------8---8-|-----8------8---8-|-----8------8---8-|-----8------8---8-|
D|-7-7---7------7---|-7-7---7------7---|-8-8---8------8---|-8-8---8------8---|

e|------------------|------------------|----------------------|----------------------|
B|------------------|------------------|----------------------|----------------------|
G|------------------|------------------|----------------------|----------------------|
D|---------10-------|---------10-------|------------10--------|----------10----------|
A|-----8------8---8-|-----8------8---8-|-------8-------8----8-|-------8-----8----8---|
D|-8-8---8------8---|-8-8---8------8---|-10-10---10------10---|-10-10---10----10-----|

e|------------------|------------------|------------------|------------------|
B|------------------|------------------|------------------|------------------|
G|------------------|------------------|------------------|------------------|
D|---------10-------|---------10-------|---------10-------|---------10-------|
A|-----8------8---8-|-----8------8---8-|-----8------8---8-|-----8------8---8-|
D|-7-7---7------7---|-7-7---7------7---|-8-8---8------8---|-8-8---8------8---|

Guitar 2:
(bending the shit out of 10)
e|------------------|------------------|----------------------|----------------------|
B|------------------|------------------|----------------------|----------------------|
G|------------------|------------------|----------------------|----------------------|
D|------------------|------------------|----------------------|----------------------|
A|------------------|------------------|----------------------|----------------------|
D|------------------|------------------|----------------------|----------------------|

e|------------------|------------------|------------------|------------------|
B|------------------|------------------|------------------|------------------|
G|------------------|------------------|------------------|------------------|
D|------------------|------------------|------------------|------------------|
A|------------------|------------------|------------------|------------------|
D|------------------|------------------|------------------|------------------|

e|------------------|------------------|----------------------|----------------------|
B|------------------|------------------|----------------------|----------------------|
G|------------------|------------------|----------------------|----------------------|
D|------------------|------------------|----------------------|----------------------|
A|------------------|------------------|----------------------|----------------------|
D|------------------|------------------|----------------------|----------------------|

e|------------------|------------------|------------------|------------------|
B|------------------|------------------|------------------|------------------|
G|------------------|------------------|-10bend-it--------|------------------|
D|------------------|------------------|------------------|------------------|
A|------------------|------------------|------------------|------------------|
D|------------------|------------------|------------------|------------------|

Chorus

Guitar 1&2:
(they play the same imo)
e|------------------|---------------|------------------|----------------|
B|------------------|---------------|------------------|----------------|
G|-10--10--X--10-10-|-10--9-9h10----|-10--10--X--10-10-|-10--10-10p9----|
D|-10--10--X--10-10-|-10---------10-|-10--10--X--10-10-|-10----------10-|
A|-8---8---X--8--8--|-8-------------|-8---8---X--8--8--|-8--------------|
D|-8---8---X--8--8--|-8-------------|-10--10--X--10-10-|-10-------------|

e|------------------|-----------------|------------------|----------------|
B|------------------|-----11-11p10----|------------------|----------------|
G|-10--10--X--10-10-|-10-----------10-|-10--10--X--10-10-|-10-----10p9----|
D|-10--10--X--10-10-|-10--------------|-10--10--X--10-10-|-10----------10-|
A|-8---8---X--8--8--|-8---------------|-8---8---X--8--8--|-8--------------|
D|-7---7---X--7--7--|-7---------------|-8---8---X--8--8--|-10-------------|

e|------------------|---------------|------------------|----------------|
B|------------------|---------------|------------------|----------------|
G|-10--10--X--10-10-|-10--9-9h10----|-10--10--X--10-10-|-10--10-10p9----|
D|-10--10--X--10-10-|-10---------10-|-10--10--X--10-10-|-10----------10-|
A|-8---8---X--8--8--|-8-------------|-8---8---X--8--8--|-8--------------|
D|-8---8---X--8--8--|-8-------------|-10--10--X--10-10-|-10-------------|

e|------------------|-----------------|------------------|----------------|
B|------------------|-----11-11p10----|------------------|----------------|
G|-10--10--X--10-10-|-10-----------10-|-10--10--X--10-10-|-10-----10p9----|
D|-10--10--X--10-10-|-10--------------|-10--10--X--10-10-|-10----------10-|
A|-8---8---X--8--8--|-8---------------|-8---8---X--8--8--|-8--------------|
D|-7---7---X--7--7--|-7---------------|-8---8---X--8--8--|-10-------------|

Bridge

Guitar 1&2:
e|--------------------------------------------|---------------------------------------------|
B|--------------------------------------------|---------------------------------------------|
G|--------------------------------------------|-10---10-10-10---10-10---10-10-10-10---10-10-|
D|-0----0--0--0----0--0----0--0--0--0----0--0-|-10---10-10-10---10-10---10-10-10-10---10-10-|
A|-0----0--0--0----0--0----0--0--0--0----0--0-|-8----8--8--8----8--8----8--8--8--8----8--8--|
D|-0----0--0--0----0--0----0--0--0--0----0--0-|-8----8--8--8----8--8----8--8--8--8----8--8--|

e|--------------------------------------------|---------------------------------------------|
B|--------------------------------------------|---------------------------------------------|
G|--------------------------------------------|-10---10-10-10---10-10---10-10-10-10--9-9-9/-|
D|-0----0--0--0----0--0----0--0--0--0----0--0-|-10---10-10-10---10-10---10-10-10-10--X-X-X/-|
A|-0----0--0--0----0--0----0--0--0--0----0--0-|-8----8--8--8----8--8----8--8--8--8---7-7-7/-|
D|-0----0--0--0----0--0----0--0--0--0----0--0-|-8----8--8--8----8--8----8--8--8--8----------|

e|--------------------------------------------|---------------------------------------------|
B|--------------------------------------------|---------------------------------------------|
G|-10-----------------------------------------|-10---10-10-10---10-10---10-10-10-10---10-10-|
D|-x----0--0--0----0--0----0--0--0--0----0--0-|-10---10-10-10---10-10---10-10-10-10---10-10-|
A|-8----0--0--0----0--0----0--0--0--0----0--0-|-8----8--8--8----8--8----8--8--8--8----8--8--|
D|------0--0--0----0--0----0--0--0--0----0--0-|-8----8--8--8----8--8----8--8--8--8----8--8--|

e|--------------------------------------------|---------------------------------------------|
B|--------------------------------------------|---------------------------------------------|
G|--------------------------------------------|-10---10-10-10---10-10---10-10-10-10--9-9-9/-|
D|-0----0--0--0----0--0----0--0--0--0----0--0-|-10---10-10-10---10-10---10-10-10-10--X-X-X/-|
A|-0----0--0--0----0--0----0--0--0--0----0--0-|-8----8--8--8----8--8----8--8--8--8---7-7-7/-|
D|-0----0--0--0----0--0----0--0--0--0----0--0-|-8----8--8--8----8--8----8--8--8--8----------|

e|----|--------|----|--------|----|--------|----|---------------|
B|----|--------|----|--------|----|--------|----|---------------|
G|-10-|-9-9-9--|-10-|-9-9-9/-|-10-|-9-9-9/-|-10-|-----------X-X-|
D|-X--|-X-X-X/-|-X--|-X-X-X/-|-X--|-X-X-X/-|-X--|-0---------X-X-|
A|-8--|-7-7-7/-|-8--|-7-7-7/-|-8--|-7-7-7/-|-8--|-0---------X-X-|
D|----|--------|----|--------|----|--------|----|-0---------X-X-|

Chorus

Guitar 1&2:
(they play the same imo)
e|------------------|---------------|------------------|----------------|
B|------------------|---------------|------------------|----------------|
G|-10--10--X--10-10-|-10--9-9h10----|-10--10--X--10-10-|-10--10-10p9----|
D|-10--10--X--10-10-|-10---------10-|-10--10--X--10-10-|-10----------10-|
A|-8---8---X--8--8--|-8-------------|-8---8---X--8--8--|-8--------------|
D|-8---8---X--8--8--|-8-------------|-10--10--X--10-10-|-10-------------|

e|------------------|-----------------|------------------|----------------|
B|------------------|-----11-11p10----|------------------|----------------|
G|-10--10--X--10-10-|-10-----------10-|-10--10--X--10-10-|-10-----10p9----|
D|-10--10--X--10-10-|-10--------------|-10--10--X--10-10-|-10----------10-|
A|-8---8---X--8--8--|-8---------------|-8---8---X--8--8--|-8--------------|
D|-7---7---X--7--7--|-7---------------|-8---8---X--8--8--|-10-------------|

e|------------------|---------------|------------------|----------------|
B|------------------|---------------|------------------|----------------|
G|-10--10--X--10-10-|-10--9-9h10----|-10--10--X--10-10-|-10--10-10p9----|
D|-10--10--X--10-10-|-10---------10-|-10--10--X--10-10-|-10----------10-|
A|-8---8---X--8--8--|-8-------------|-8---8---X--8--8--|-8--------------|
D|-8---8---X--8--8--|-8-------------|-10--10--X--10-10-|-10-------------|

e|------------------|-----------------|------------------|----------------|
B|------------------|-----11-11p10----|------------------|----------------|
G|-10--10--X--10-10-|-10-----------10-|-10--10--X--10-10-|-10-----10p9----|
D|-10--10--X--10-10-|-10--------------|-10--10--X--10-10-|-10----------10-|
A|-8---8---X--8--8--|-8---------------|-8---8---X--8--8--|-8--------------|
D|-7---7---X--7--7--|-7---------------|-8---8---X--8--8--|-10-------------|


Bridge

Guitar 1:
e|--------------------------------------------|---------------------------------------------|
B|--------------------------------------------|---------------------------------------------|
G|--------------------------------------------|-10---10-10-10---10-10---10-10-10-10---10-10-|
D|-0----0--0--0----0--0----0--0--0--0----0--0-|-10---10-10-10---10-10---10-10-10-10---10-10-|
A|-0----0--0--0----0--0----0--0--0--0----0--0-|-8----8--8--8----8--8----8--8--8--8----8--8--|
D|-0----0--0--0----0--0----0--0--0--0----0--0-|-8----8--8--8----8--8----8--8--8--8----8--8--|

e|--------------------------------------------|---------------------------------------------|
B|--------------------------------------------|---------------------------------------------|
G|--------------------------------------------|-10---10-10-10---10-10---10-10-10-10--9-9-9/-|
D|-0----0--0--0----0--0----0--0--0--0----0--0-|-10---10-10-10---10-10---10-10-10-10--X-X-X/-|
A|-0----0--0--0----0--0----0--0--0--0----0--0-|-8----8--8--8----8--8----8--8--8--8---7-7-7/-|
D|-0----0--0--0----0--0----0--0--0--0----0--0-|-8----8--8--8----8--8----8--8--8--8----------|

e|--------------------------------------------|---------------------------------------------|
B|--------------------------------------------|---------------------------------------------|
G|--------------------------------------------|-10---10-10-10---10-10---10-10-10-10---10-10-|
D|-0----0--0--0----0--0----0--0--0--0----0--0-|-10---10-10-10---10-10---10-10-10-10---10-10-|
A|-0----0--0--0----0--0----0--0--0--0----0--0-|-8----8--8--8----8--8----8--8--8--8----8--8--|
D|-0----0--0--0----0--0----0--0--0--0----0--0-|-8----8--8--8----8--8----8--8--8--8----8--8--|

e|--------------------------------------------|---------------------------------------------|
B|--------------------------------------------|---------------------------------------------|
G|--------------------------------------------|-10---10-10-10---10-10---10-10-10-10--9-9-9/-|
D|-0----0--0--0----0--0----0--0--0--0----0--0-|-10---10-10-10---10-10---10-10-10-10--X-X-X/-|
A|-0----0--0--0----0--0----0--0--0--0----0--0-|-8----8--8--8----8--8----8--8--8--8---7-7-7/-|
D|-0----0--0--0----0--0----0--0--0--0----0--0-|-8----8--8--8----8--8----8--8--8--8----------|

e|--------------------------------------------|---------------------------------------------|
B|--------------------------------------------|---------------------------------------------|
G|--------------------------------------------|-10---10-10-10---10-10---10-10-10-10---10-10-|
D|-0----0--0--0----0--0----0--0--0--0----0--0-|-10---10-10-10---10-10---10-10-10-10---10-10-|
A|-0----0--0--0----0--0----0--0--0--0----0--0-|-8----8--8--8----8--8----8--8--8--8----8--8--|
D|-0----0--0--0----0--0----0--0--0--0----0--0-|-8----8--8--8----8--8----8--8--8--8----8--8--|

e|--------------------------------------------|---------------------------------------------|
B|--------------------------------------------|---------------------------------------------|
G|--------------------------------------------|-10---10-10-10---10-10---10-10-10-10--9-9-9/-|
D|-0----0--0--0----0--0----0--0--0--0----0--0-|-10---10-10-10---10-10---10-10-10-10--X-X-X/-|
A|-0----0--0--0----0--0----0--0--0--0----0--0-|-8----8--8--8----8--8----8--8--8--8---7-7-7/-|
D|-0----0--0--0----0--0----0--0--0--0----0--0-|-8----8--8--8----8--8----8--8--8--8----------|

e|--------------------------------------------|---------------------------------------------|
B|--------------------------------------------|---------------------------------------------|
G|-10-----------------------------------------|-10---10-10-10---10-10---10-10-10-10---10-10-|
D|-x----0--0--0----0--0----0--0--0--0----0--0-|-10---10-10-10---10-10---10-10-10-10---10-10-|
A|-8----0--0--0----0--0----0--0--0--0----0--0-|-8----8--8--8----8--8----8--8--8--8----8--8--|
D|------0--0--0----0--0----0--0--0--0----0--0-|-8----8--8--8----8--8----8--8--8--8----8--8--|

e|--------------------------------------------|---------------------------------------------|
B|--------------------------------------------|---------------------------------------------|
G|--------------------------------------------|-10---10-10-10---10-10---10-10-10-10--9-9-9/-|
D|-0----0--0--0----0--0----0--0--0--0----0--0-|-10---10-10-10---10-10---10-10-10-10--X-X-X/-|
A|-0----0--0--0----0--0----0--0--0--0----0--0-|-8----8--8--8----8--8----8--8--8--8---7-7-7/-|
D|-0----0--0--0----0--0----0--0--0--0----0--0-|-8----8--8--8----8--8----8--8--8--8----------|

e|----|--------|----|--------|----|--------|----|--------|----||
B|----|--------|----|--------|----|--------|----|--------|----||
G|-10-|-9-9-9/-|-10-|-9-9-9/-|-10-|-9-9-9/-|-10-|-9-9-9/-|-10-||
D|-X--|-X-X-X/-|-X--|-X-X-X/-|-X--|-X-X-X/-|-X--|-X-X-X/-|-X--||
A|-8--|-7-7-7/-|-8--|-7-7-7/-|-8--|-7-7-7/-|-8--|-7-7-7/-|-8--||
D|----|--------|----|--------|----|--------|----|--------|----||

Guitar 2:
e|--------------------------------------------|---------------------------------------------|
B|--------------------------------------------|---------------------------------------------|
G|--------------------------------------------|-10---10-10-10---10-10---10-10-10-10---10-10-|
D|-0----0--0--0----0--0----0--0--0--0----0--0-|-10---10-10-10---10-10---10-10-10-10---10-10-|
A|-0----0--0--0----0--0----0--0--0--0----0--0-|-8----8--8--8----8--8----8--8--8--8----8--8--|
D|-0----0--0--0----0--0----0--0--0--0----0--0-|-8----8--8--8----8--8----8--8--8--8----8--8--|

e|--------------------------------------------|---------------------------------------------|
B|--------------------------------------------|---------------------------------------------|
G|--------------------------------------------|-10---10-10-10---10-10---10-10-10-10--9-9-9/-|
D|-0----0--0--0----0--0----0--0--0--0----0--0-|-10---10-10-10---10-10---10-10-10-10--X-X-X/-|
A|-0----0--0--0----0--0----0--0--0--0----0--0-|-8----8--8--8----8--8----8--8--8--8---7-7-7/-|
D|-0----0--0--0----0--0----0--0--0--0----0--0-|-8----8--8--8----8--8----8--8--8--8----------|

e|--------------------------------------------|---------------------------------------------|
B|--------------------------------------------|---------------------------------------------|
G|--------------------------------------------|-10---10-10-10---10-10---10-10-10-10---10-10-|
D|-0----0--0--0----0--0----0--0--0--0----0--0-|-10---10-10-10---10-10---10-10-10-10---10-10-|
A|-0----0--0--0----0--0----0--0--0--0----0--0-|-8----8--8--8----8--8----8--8--8--8----8--8--|
D|-0----0--0--0----0--0----0--0--0--0----0--0-|-8----8--8--8----8--8----8--8--8--8----8--8--|

e|--------------------------------------------|---------------------------------------------|
B|--------------------------------------------|---------------------------------------------|
G|--------------------------------------------|-10---10-10-10---10-10---10-10-10-10--9-9-9/-|
D|-0----0--0--0----0--0----0--0--0--0----0--0-|-10---10-10-10---10-10---10-10-10-10--X-X-X/-|
A|-0----0--0--0----0--0----0--0--0--0----0--0-|-8----8--8--8----8--8----8--8--8--8---7-7-7/-|
D|-0----0--0--0----0--0----0--0--0--0----0--0-|-8----8--8--8----8--8----8--8--8--8----------|

e|----------------------------------------------------------------|
B|----------------------------------------------------------------|
G|-10--10--10--10--9---9---9---9------5---5---5---5/7---7---7---7-|
D|-X---X---X---X---X---X---X---X------X---X---X---X/X---X---X---X-|
A|-8---8---8---8---7---7---7---7------3---3---3---3/5---5---5---5-|
D|----------------------------------------------------------------|

e|----------------------------------------------------------------|
B|----------------------------------------------------------------|
G|-10--10--10--10--9---9---9---9------5---5---5---5/7---7---7---7-|
D|-X---X---X---X---X---X---X---X------X---X---X---X/X---X---X---X-|
A|-8---8---8---8---7---7---7---7------3---3---3---3/5---5---5---5-|
D|----------------------------------------------------------------|

e|----------------------------------------------------------------|
B|----------------------------------------------------------------|
G|-10--10--10--10--9---9---9---9------5---5---5---5/7---7---7---7-|
D|-X---X---X---X---X---X---X---X------X---X---X---X/X---X---X---X-|
A|-8---8---8---8---7---7---7---7------3---3---3---3/5---5---5---5-|
D|----------------------------------------------------------------|

e|---------------------------------------------------------------|
B|---------------------------------------------------------------|
G|-5---5---5---5---5---5---5---5---5---5---5---5----9----9----9/-|
D|-X---X---X---X---X---X---X---X---X---X---X---X----X----X----X/-|
A|-3---3---3---3---3---3---3---3---3---3---3---3----7----7----7/-|
D|---------------------------------------------------------------|

e|----------------------------------------------------------------|
B|----------------------------------------------------------------|
G|-10--10--10--10--9---9---9---9------5---5---5---5/7---7---7---7-|
D|-X---X---X---X---X---X---X---X------X---X---X---X/X---X---X---X-|
A|-8---8---8---8---7---7---7---7------3---3---3---3/5---5---5---5-|
D|----------------------------------------------------------------|

e|----------------------------------------------------------------|
B|----------------------------------------------------------------|
G|-10--10--10--10--9---9---9---9------5---5---5---5/7---7---7---7-|
D|-X---X---X---X---X---X---X---X------X---X---X---X/X---X---X---X-|
A|-8---8---8---8---7---7---7---7------3---3---3---3/5---5---5---5-|
D|----------------------------------------------------------------|

e|----------------------------------------------------------------|
B|----------------------------------------------------------------|
G|-10--10--10--10--9---9---9---9------5---5---5---5/7---7---7---7-|
D|-X---X---X---X---X---X---X---X------X---X---X---X/X---X---X---X-|
A|-8---8---8---8---7---7---7---7------3---3---3---3/5---5---5---5-|
D|----------------------------------------------------------------|

e|---------------------------------------------------------------|
B|---------------------------------------------------------------|
G|-5---5---5---5---5---5---5---5---5---5---5---5----9----9----9/-|
D|-X---X---X---X---X---X---X---X---X---X---X---X----X----X----X/-|
A|-3---3---3---3---3---3---3---3---3---3---3---3----7----7----7/-|
D|---------------------------------------------------------------|

e|----|--------|----|--------|----|--------|----|--------|----||
B|----|--------|----|--------|----|--------|----|--------|----||
G|-10-|-9-9-9/-|-10-|-9-9-9/-|-10-|-9-9-9/-|-10-|-9-9-9/-|-10-||
D|-X--|-X-X-X/-|-X--|-X-X-X/-|-X--|-X-X-X/-|-X--|-X-X-X/-|-X--||
A|-8--|-7-7-7/-|-8--|-7-7-7/-|-8--|-7-7-7/-|-8--|-7-7-7/-|-8--||
D|----|--------|----|--------|----|--------|----|--------|----||

Personal comment:
I've once seen a tab here, which was pretty good. But somehow it's been gone, when i wanted
to look it up again yesterday(7th august '15). So I decided to tab it out myself and show you 
guys, 'cause this song is pretty amazing. This is by the way my first tab and looks even to
me a little confusing at the first watch. But I swear it does a sense. Thanks :)

            
            
Suggest correction
Creating personal tab
Creating personal tab
You can edit any tab online and save it as your Personal.

You can edit, replace or remove any tab part or add personal notes – all changes will be seen only by you.

Personal tabs can be accessed anytime from any device, even offline.
Learn more »
Give kudos to tab author, rate the tab!
1 2 3 4 5
comments
print report bad tab
guest
You may want to rate the tab now too:
select rating
Wanna post a correction for this tab? Suggest correction