Oops, an error
Loading. Please wait.

Captain America bass

249 views 1 this week
no commentswrite comment
1 2 3 4 5
3 more votes to show rating
add to favorites
×
Save as Personal and add changes to this tab that will be seen only by you. Learn more ›
×
You can save this tab as Personal to edit and correct it or add notes. All changes will be seen only by you. Learn more »
launch autoscroll
font size
0
reset
guitar tuner
edit
Autoscroll
slow
fast
+/-
esc
set tempo
stop
Captain America - A Future Corrupt
This song is the property of A Future Corrupt and the tab is the work of Jake Thurston.
Do not duplicate this in any way without direct permission.

Tab Type: Bass (5 String)
Tuning: Drop A
Form: (Intro x1(Just guitar), Intro x3, 2step x2, verse x1, chorus x2, chorus2 x2, 
Bridge x1, Intro x2,
        8String D-jent, Breakdown(Devil Chords) x8, Bass leads over Breakdown(open) x4


Intro
G|------------------------------------------------------------------|
D|------------------------------------------------------------------|
A|------------------------------------------------------------------|
E|---------------------------5--------------------------------------|
A|0b00-000-000-8--000-0-0h3h7-7p5p3p0--0b00-000-000-8-000-005-4-1---|
    Same Chug pattern as guitar
2step
G|-----------------------------------------------|------------------|
D|-----------------------------------------------|------------------|
A|------------------------------------------3-2--|------------------|
E|-----------1-----------------------1----------4|------------------|
A|1b0-5b0-015--0-005-4-1--1b0-5b0-015--0-00------|-0---1--5---------|
                                                  Play last time only
Verse
G|---------------17----------16---------17--------------------------|
D|-------------17--17----------17---------17------------------------|
A|--------15h18------18h15-------18p14------18p15-------------------|
E|------15----------------------------------------------------------|
A|-15h18------------------------------------------------------------|
  Bass sweeps
Chorus
G|------------------------------------------------------------------|
D|------------------------------------------------------------------|
A|------------------------------------------------------------------|
E|--------556655-------11-------------------------------------------|
A|55555588------88-1155--55-00447744--------------------------------|
  Short Staccato Feel
Chorus 2
G|--------------------------------------------|---------------------|
D|--------------------------------------------|---------------------|
A|------7--87--------3------------------------|---------------------|
E|5--7h8------8--1-5---5-0-4-7-4--------------|--5------------------|
A|--------------------------------------------|--0------------------|
  Heavy Swing feel                              Play last time only
Bridge
G|--------------------------------|-------------------------------------|
D|--------------------------------|-------------------------------------|
A|--------------------------------|-------------------------------------|
E|8888--8888-7h87h8-4444--4444-5--|-8888--8888-7h87h8-4444--1111--5-----|
A|-------------------------------8|---------------------------------8---|
  Slap the whole bridge             Play this part twice
Breakdown
G|----------------------------------------------------------------------|
D|----------------------------------------------------------------------|
A|----------------------------------------------------------------------|
E|----------------------------------------------------------------------|
A|11111-1--11111-1--111-111---------------------------------------------|

End Bass Leads
G|----------------------------------------------------------------------|
D|----------------------------------------------------------------------|
E|-----7----------7-5--7-5--------7----------7-5--7-5------7-5----------|
A|Su8----87--8--7----------8--Su8---87--8--7----------8--------8-5------|
E|---------------------------------------------------------------0------|
   Su means slide up to

            
            
Suggest correction
Creating personal tab
Creating personal tab
You can edit any tab online and save it as your Personal.

You can edit, replace or remove any tab part or add personal notes – all changes will be seen only by you.

Personal tabs can be accessed anytime from any device, even offline.
Learn more »
Give kudos to tab author, rate the tab!
1 2 3 4 5
comments
print report bad tab
guest
You may want to rate the tab now too:
select rating
Wanna post a correction for this tab? Suggest correction