Oops, an error
Loading. Please wait.

Ill Come Crashing bass

version 1
version 1

Whole song

  • Whole tab written for bass.

Interactive

211 views 1 this week
no commentswrite comment
1 2 3 4 5
2 more votes to show rating
add to favorites
×
Save as Personal and add changes to this tab that will be seen only by you. Learn more ›
×
You can save this tab as Personal to edit and correct it or add notes. All changes will be seen only by you. Learn more »
launch autoscroll
font size
0
reset
guitar tuner
edit
Autoscroll
slow
fast
+/-
esc
set tempo
stop
About this tab version
Whole tab written for bass. Was this info helpful? Yes No
Artist: A Giant Dog
Song: I'll Come Crashing
Album: Pile
Words: A Giant Dog
Music: A Giant Dog
Tabber: lego_alien
Tempo = 160
Time signature: 4/4

[Intro]
(only guitar)

[Verse 1] 
(x3)
G|----------------------------|----------------------------|
D|--0--0--0--0--0--0--0--0----|--3--3--3--3--3--3--3--3----|
A|----------------------------|----------------------------|
E|----------------------------|----------------------------|

G|----------------------------|----------------------------|
D|--2--2--2--2--2--2--2--2----|--3--3--3--3--3--5--3--2----|
A|----------------------------|----------------------------|
E|----------------------------|----------------------------|

G|----------------------------|----------------------------|
D|--0--0--0--0--0--0--0--0----|--3--3--3--3--3--3--3--3----|
A|----------------------------|----------------------------|
E|----------------------------|----------------------------|

G|----------------------------|--2--2--0--0----------------|
D|--2--2--2--2--2--2--2--2----|--------------3--3--2--2----|
A|----------------------------|----------------------------|
E|----------------------------|----------------------------|

[Chorus 1]
G|----------------------------|----------------------------|
D|--0--0--0--0--0--0--0--0----|--3--3--3--3--3--3--3--3----|
A|----------------------------|----------------------------|
E|----------------------------|----------------------------|

G|----------------------------|----------------------------|
D|----------------------------|----------------------------|
A|--1--1--1--1--1--1--1--1----|--0--0--0--0--0--0--0--0----|
E|----------------------------|----------------------------|

G|----------------------------|----------------------------|
D|--0--0--0--0--0--0--0--0----|--3--3--3--3--3--3--3--3----|
A|----------------------------|----------------------------|
E|----------------------------|----------------------------|

G|----------------------------|----------------------------|
D|----------------------------|----------------------------|
A|--1--1--1--1--1--1--1--1----|--0--0--0--0--0--0--0--0----|
E|----------------------------|----------------------------|

G|----------------------------|----------------------------|
D|--0--0--0--0--0--0--0--0----|--3--3--3--3--3--3--3--3----|
A|----------------------------|----------------------------|
E|----------------------------|----------------------------|

G|----------------------------|----------------------------|
D|----------------------------|----------------------------|
A|--1--1--1--1--1--1--1--1----|--0--0--0--0--0--0--0--0----|
E|----------------------------|----------------------------|

G|----------------------------|----------------------------|
D|--5--5--5--5--5--5--5--5----|--5--5--5--5--5--5--5--5----|
A|----------------------------|----------------------------|
E|----------------------------|----------------------------|

G|----------------------------|----------------------------|
D|--7--7--7--7--7--7--7--7----|--7--7--7--7--7--7--7--7----|
A|----------------------------|----------------------------|
E|----------------------------|----------------------------|

[Verse 1] 
(x3)
G|----------------------------|----------------------------|
D|--0--0--0--0--0--0--0--0----|--3--3--3--3--3--3--3--3----|
A|----------------------------|----------------------------|
E|----------------------------|----------------------------|

G|----------------------------|----------------------------|
D|--2--2--2--2--2--2--2--2----|--3--3--3--3--3--5--3--2----|
A|----------------------------|----------------------------|
E|----------------------------|----------------------------|

G|----------------------------|----------------------------|
D|--0--0--0--0--0--0--0--0----|--3--3--3--3--3--3--3--3----|
A|----------------------------|----------------------------|
E|----------------------------|----------------------------|

G|----------------------------|--2--2--0--0----------------|
D|--2--2--2--2--2--2--2--2----|--------------3--3--2--2----|
A|----------------------------|----------------------------|
E|----------------------------|----------------------------|

[Chorus 2]
G|----------------------------|----------------------------|
D|--0--0--0--0--0--0--0--0----|--3--3--3--3--3--3--3--3----|
A|----------------------------|----------------------------|
E|----------------------------|----------------------------|

G|----------------------------|----------------------------|
D|----------------------------|----------------------------|
A|--1--1--1--1--1--1--1--1----|--0--0--0--0--0--0--0--0----|
E|----------------------------|----------------------------|

G|----------------------------|----------------------------|
D|--0--0--0--0--0--0--0--0----|--3--3--3--3--3--3--3--3----|
A|----------------------------|----------------------------|
E|----------------------------|----------------------------|

G|----------------------------|----------------------------|
D|----------------------------|----------------------------|
A|--1--1--1--1--1--1--1--1----|--0--0--0--0--0--0--0--0----|
E|----------------------------|----------------------------|

G|----------------------------|----------------------------|
D|--0--0--0--0--0--0--0--0----|--3--3--3--3--3--3--3--3----|
A|----------------------------|----------------------------|
E|----------------------------|----------------------------|

G|----------------------------|----------------------------|
D|----------------------------|----------------------------|
A|--1--1--1--1--1--1--1--1----|--0--0--0--0--0--0--0--0----|
E|----------------------------|----------------------------|

G|----------------------------|----------------------------|
D|--5--5--5--5--5--5--5--5----|--5--5--5--5--5--5--5--5----|
A|----------------------------|----------------------------|
E|----------------------------|----------------------------|

G|----------------------------|----------------------------|
D|--7--7--7--7--7--7--7--7----|--7--7--7--7--7--7--7--7----|
A|----------------------------|----------------------------|
E|----------------------------|----------------------------|

G|----------------------------|----------------------------|
D|--0--0--0--0--0--0--0--0----|--3--3--3--3--3--3--3--3----|
A|----------------------------|----------------------------|
E|----------------------------|----------------------------|

G|----------------------------|----------------------------|
D|----------------------------|----------------------------|
A|--1--1--1--1--1--1--1--1----|--0--0--0--0--0--0--0--0----|
E|----------------------------|----------------------------|

G|----------------------------|----------------------------|
D|--5--5--5--5--5--5--5--5----|--5--5--5--5--5--5--5--5----|
A|----------------------------|----------------------------|
E|----------------------------|----------------------------|

G|----------------------------|----------------------------|
D|--7--7--7--7--7--7--7--7----|--7--7--7--7--7--7--7--7----|
A|----------------------------|----------------------------|
E|----------------------------|----------------------------|

[Bridge] 
(x2)
G|----------------------------|----------------------------|
D|--0-----0--0--3--0--3-------|--5--3--5-----7-----7--7----|
A|----------------------------|----------------------------|
E|----------------------------|----------------------------|

G|--10----10-10-10-9--7-------|--9h7s5--7--5---7-----7-----|
D|----------------------------|----------------------------|
A|----------------------------|----------------------------|
E|----------------------------|----------------------------|

G|----------------------------|----------------------------|
D|--5-----5-----5--3--5-------|--5--7--5--3--5-----5-------|
A|----------------------------|----------------------------|
E|----------------------------|----------------------------|

G|----------------------------|--7--5--7-----10-7----------|
D|--5--3--5-----7--5--7-------|--------------------7--5----|
A|----------------------------|----------------------------|
E|----------------------------|----------------------------|

[Chorus 3]
G|----------------------------|----------------------------|
D|--0--0--0--0--0--0--0--0----|--3--3--3--3--3--3--3--3----|
A|----------------------------|----------------------------|
E|----------------------------|----------------------------|

G|----------------------------|----------------------------|
D|----------------------------|----------------------------|
A|--1--1--1--1--1--1--1--1----|--0--0--0--0--0--0--0--0----|
E|----------------------------|----------------------------|

G|----------------------------|----------------------------|
D|--0--0--0--0--0--0--0--0----|--3--3--3--3--3--3--3--3----|
A|----------------------------|----------------------------|
E|----------------------------|----------------------------|

G|----------------------------|----------------------------|
D|----------------------------|----------------------------|
A|--1--1--1--1--1--1--1--1----|--0--0--0--0--0--0--0--0----|
E|----------------------------|----------------------------|

G|----------------------------|----------------------------|
D|--0--0--0--0--0--0--0--0----|--3--3--3--3--3--3--3--3----|
A|----------------------------|----------------------------|
E|----------------------------|----------------------------|

G|----------------------------|----------------------------|
D|----------------------------|----------------------------|
A|--1--1--1--1--1--1--1--1----|--0--0--0--0--0--0--0--0----|
E|----------------------------|----------------------------|

G|----------------------------|----------------------------|
D|--5--5--5--5--5--5--5--5----|--5--5--5--5--5--5--5--5----|
A|----------------------------|----------------------------|
E|----------------------------|----------------------------|

G|----------------------------|----------------------------|
D|--7--7--7--7--7--7--7--7----|--7--7--7--7--7--7--7--7----|
A|----------------------------|----------------------------|
E|----------------------------|----------------------------|

G|----------------------------|----------------------------|
D|--0--0--0--0--0--0--0--0----|--3--3--3--3--3--3--3--3----|
A|----------------------------|----------------------------|
E|----------------------------|----------------------------|

G|----------------------------|----------------------------|
D|----------------------------|----------------------------|
A|--1--1--1--1--1--1--1--1----|--0--0--0--0--0--0--0--0----|
E|----------------------------|----------------------------|

G|----------------------------|----------------------------|
D|--5--5--5--5--5--5--5--5----|--5--5--5--5--5--5--5--5----|
A|----------------------------|----------------------------|
E|----------------------------|----------------------------|

G|----------------------------|----------------------------|
D|--7--7--7--7--7--7--7--7----|--7--7--7--7--7--7--7--7----|
A|----------------------------|----------------------------|
E|----------------------------|----------------------------|


************************************

| h  Hammer-on
| s - slide

************************************

            
            
Suggest correction
Creating personal tab
Creating personal tab
You can edit any tab online and save it as your Personal.

You can edit, replace or remove any tab part or add personal notes – all changes will be seen only by you.

Personal tabs can be accessed anytime from any device, even offline.
Learn more »
Give kudos to tab author, rate the tab!
1 2 3 4 5
comments
print report bad tab
guest
You may want to rate the tab now too:
select rating
Wanna post a correction for this tab? Suggest correction