Oops, an error
Loading. Please wait.
We have an official Say Something tab made by UG professional guitarists. Check out the tab »
×

Say Something tab

version 7
version 7

Whole song

  • My tab is more advanced and is a mix between lead ... Show more
  • This version has extra details in some areas.
  • Acoustic version with Tab and chords. Played with ... Show more
  • This song is played in capo 2 and the rhythm rather slow.

Interactive

9,511 views 3 this week
no commentswrite comment
1 2 3 4 5
x 3
add to favorites
×
Save as Personal and add changes to this tab that will be seen only by you. Learn more ›
×
You can save this tab as Personal to edit and correct it or add notes. All changes will be seen only by you. Learn more »
launch autoscroll
font size
0
reset
how to read this tab
guitar tuner
edit
Autoscroll
slow
fast
+/-
esc
set tempo
stop
Author
Difficulty
About this tab version
My tab is more advanced and is a mix between lead and rhythmic guitar. Some piano tones are included as well. Was this info helpful? Yes No
-------------------------------------------------------------------------------
                  SAY SOMETHING - A Great Big World
-------------------------------------------------------------------------------
Tabbed by: Ralph Welin
E-mail: ralph_welin@hotmail.com

This is one of my first tabs so be nice ;) Please like if you enjoy and tell me in the 
comments if you didn't or/and would like me to change something. 

If you like to email me that's fine, though make sure to mark the subject with
something related to the tab or I might think it's spam! 


Tuning: Standard

Intro:

e|------------|------------|
B|--3------3--|--3---3--3--|
G|------------|------------|
D|------------|------------|
A|------------|------------|
E|------------|------------|

Chorus:
                                       Play chorus riff 5 times (start singing at 2nd)
            
             Say Something...
  Bm                   G                    D                    Asus4
e|--------------------|--------------------|--------------------|--------------------|
B|--3--------3--------|--3--------3--------|--3--------3--------|--3--------3--------|
G|--------2-----2-----|--------0-----0-----|-----2--------2-----|--------2-----2-----|
D|-----0-----------0--|-----0-----------0--|--0-----0--------0--|-----2-----------2--|
A|--2-----------------|--------------------|--------------------|--0-----------------|
E|--------------------|--3-----------------|--------------------|--------------------|



Verse:
                                                               Play verse riff 2 times

    I am feeling so small...
  D                                         F#m
e|--------------------|--------------------|--------------------|-----------------0--|
B|--3--------3--------|--3-----------------|--2--------2--------|--2--------2--3-----|
G|--2--------2--------|--2-----------------|--2--------2--------|--2-----------------|
D|--0--------0--------|--0--------0--2--4--|--------------------|--------------------|
A|--------------------|--------------------|--------------------|--------------------|
E|--------------------|--------------------|--2--------2--------|--2-----------------|


    over my head...
  G                                         D                    Asus4
e|--------------------|--------------------|--------------------|--------------------|
B|--3--------3--------|--3--------3--------|--3--------3--------|--3--------3--------|
G|--0--------0--------|--0--------0--------|--2--------2--------|--2--------2--------|
D|--------------------|--------------------|--0--------0--------|--2--------2--------|
A|--------------------|--------------------|--------------------|--0--------0--------|
E|--3--------3--------|--3--------3--------|--------------------|--------------------|

                                       Last time before chorus play this Asus4 instead
                                                               e|--------------------|
                                                               B|--3-----------------|
                                                               G|--2-----------------|
                                                               D|--2--------0-0-2-0--|
                                                               A|--0-----------------|
                                                               E|--------------------|






Repeat chorus riff 4 times after that play the verse riff 1 time with the last Asus4
then do the chorus riff 4 times again






Outro:

                           At Bm, start slowing down the speed/tempo you're playing at 
                            so that on Asus4 you are playing on 3/4 of the speed/tempo

             Say Something...
  Bm                   G                    D                    Asus4
e|--------------------|--------------------|--------------------|--------------------|
B|--3--------3--------|--3--------3--------|--3--------3--------|--3--------3--------|
G|--------2-----2-----|--------0-----0-----|-----2--------2-----|--------2-----2-----|
D|-----0-----------0--|-----0-----------0--|--0-----0--------0--|-----2-----------2--|
A|--2-----------------|--------------------|--------------------|--0-----------------|
E|--------------------|--3-----------------|--------------------|--------------------|


             Say Something...
  Bm                   G                    D
e|--------------------|--------------------|---P----------------|--------------------|
B|--3--------3--------|--3--------3--------|---A-------3--------|--------------------|
G|--------------------|--------------------|---U-------2--------|--------------------|
D|--------------------|--------------------|---S-------0--------|--------------------|
A|--2-----------------|--------------------|---E----------------|--------------------|
E|--------------------|--3-----------------|---!----------------|--------------------|








************************************

| /   slide up
| \   slide down
| h   hammer-on
| p   pull-off
| ~   vibrato
| +   harmonic
| x   Mute note
| b   Bend
| pb  Pre-bend
| br  Bend release
| pbr Pre-bend release
| brb Bend release bend

************************************

            
            
Suggest correction
Creating personal tab
Creating personal tab
You can edit any tab online and save it as your Personal.

You can edit, replace or remove any tab part or add personal notes – all changes will be seen only by you.

Personal tabs can be accessed anytime from any device, even offline.
Learn more »
Give kudos to tab author, rate the tab!
1 2 3 4 5
comments
print report bad tab
guest
You may want to rate the tab now too:
select rating
Wanna post a correction for this tab? Suggest correction