Oops, an error
Loading. Please wait.
We have an official Say Something tab made by UG professional guitarists. Check out the tab »
×
1,787 views 45 this week
1 commentread comment
1 2 3 4 5
x 4
add to favorites
×
Save as Personal and add changes to this tab that will be seen only by you. Learn more ›
×
You can save this tab as Personal to edit and correct it or add notes. All changes will be seen only by you. Learn more »
launch autoscroll
font size
0
reset
how to read this tab
guitar tuner
edit
Autoscroll
slow
fast
+/-
esc
set tempo
stop
-------------------------------------------------------------------------------
                 Say Something Acooustic Tab - A Great Big World
-------------------------------------------------------------------------------
Tabbed by: Jacob Racho-Luis
E-mail: jake-hyphen@hotmail.com

This is how I figured it out, and like it this way. 
Tuning: Standard
Capo: 2
Play Slowly

Intro (once)
e|---------------------------------------------------------------------------|
B|-1-----1-----1-----1---1-------1-----------1-----------1-----------1-------|
G|---------------------------------------------------------------------------|
D|---------------------------------------------------------------------------|
A|-------------------------0-----------------------3-------------------------|
E|-------------------------------------1-----------------------3-------------|

Chorus 

   Say Something I'm giving up on you.
e|-------0---------0---------------------------------------------------------|
B|-1-------3-3-3-3---3-1-1---------------------------------------------------|
G|---------------------------------------------------------------------------|
D|---------------------------------------------------------------------------|
A|-0-------------------------------------------------------------------------|
E|-------------1-------------------------------------------------------------|

I'll be the one if you want me to.
e|-------0---------0---------------------------------------------------------|
B|-1-------3-3-3-3---3-1-1---------------------------------------------------|
G|---------------------------------------------------------------------------|
D|---------------------------------------------------------------------------|
A|-0-------------------------------------------------------------------------|
E|-------------1-------------------------------------------------------------|

Anywhere I, would have followed you.
e|-------0---------0---------------------------------------------------------|
B|-1-------3-3-3-3---3-1-1---------------------------------------------------|
G|-2---2-------2-------------------------------------------------------------|
D|---------------------------------------------------------------------------|
A|-0-------------------------------------------------------------------------|
E|-------------1-------------------------------------------------------------|

Say something I'm giving up on you.
e|-------0---------0---------------------------------------------------------|
B|-1-------3-3-3-3---3-1-1---------------------------------------------------|
G|---------------------------------------------------------------------------|
D|---------------------------------------------------------------------------|
A|-0-------------------------------------------------------------------------|
E|-------------1-------------------------------------------------------------|


Verse 1

And I... I'm feeling so small
e|---------------------0-----------------------------------------------------|
B|-1-----1-----1---1h3---0---------------------------------------------------|
G|-----------------------0-----0-----0-----0---------------------------------|
D|---------------------------------------------------------------------------|
A|-3---------------3-----0---------------------------------------------------|
E|---------------------------------------------------------------------------|

I was over my head... I know nothing at all
e|---------------------------------------------------------------------------|
B|-0-0-1--------------------------------1-----------1------------------------|
G|-------2p0h2-----2-----2-2p0-----------------------------------------------|
D|-----------------------------3--2------------------------------------------|
A|--------------------------------3-----------2------------------------------|
E|-----1-----1-------------2------------------3------------------------------|


And I... Will stumble and fall
e|---------------------0-----------------------------------------------------|
B|-1-----1-----1---1h3---0---------------------------------------------------|
G|-----------------------0-----0-----0-----0---------------------------------|
D|---------------------------------------------------------------------------|
A|-3---------------3-----0---------------------------------------------------|
E|---------------------------------------------------------------------------|


I'm still learning to love... Just starting to crawl
e|---------------------------------------------------------------------------|
B|-0-0-1--------------------------------1-----------1------------------------|
G|-------2p0h2-----2-----2-2p0-----------------------------------------------|
D|-----------------------------3--2------------------------------------------|
A|--------------------------------3-----------2------------------------------|
E|-----1-----1-------------2------------------3------------------------------|

(Chorus)

Verse 2

And I... Will swallow my... Pride
e|---------------------0-----------------------------------------------------|
B|-1-----1-----1---1h3---0---------------------------------------------------|
G|-----------------------0-----0-----0-----0---------------------------------|
D|---------------------------------------------------------------------------|
A|-3---------------3-----0---------------------------------------------------|
E|---------------------------------------------------------------------------|

You're the one... That I love... And I'm saying goodbye
e|---------------------------------------------------------------------------|
B|-0-0-1--------------------------------1-----------1------------------------|
G|-------2p0h2-----2-----2-2p0-----------------------------------------------|
D|-----------------------------3--2------------------------------------------|
A|--------------------------------3-----------2------------------------------|
E|-----1-----1-------------2------------------3------------------------------|


(Chorus)(x2 optional)

Outro
                                                                            
e|---------------------------------------------------------------------------|
B|-------1-----------1-----------1-----------1-----------1-----------1-------|
G|---------------------------------------------------------------------------|
D|---------------------------------------------------------------------------|
A|-0-----------------------3-----------------------0-------------------------|
E|-------------1-----------------------3-----------------------1-------------|
                                                                           (^strum C to end)

************************************
| h   hammer-on
| p   pull-off
************************************

            
            
Suggest correction
Creating personal tab
Creating personal tab
You can edit any tab online and save it as your Personal.

You can edit, replace or remove any tab part or add personal notes – all changes will be seen only by you.

Personal tabs can be accessed anytime from any device, even offline.
Learn more »
comments
print report bad tab
1 comment total.
0 reply
YEIS0N 140 Nov 23, 2015 04:13 PM

Not perfect though it is a tab that I would recommend to others

guest
You may want to rate the tab now too:
select rating
Wanna post a correction for this tab? Suggest correction