Oops, an error
Loading. Please wait.
We have an official 3 Libras tab made by UG professional guitarists. Check out the tab »
×
324,412 views 399 this week
31 commentsread comments
1 2 3 4 5
x 117
add to favorites
×
Save as Personal and add changes to this tab that will be seen only by you. Learn more ›
×
You can save this tab as Personal to edit and correct it or add notes. All changes will be seen only by you. Learn more »
launch autoscroll
font size
0
reset
how to read this tab
guitar tuner
backing track
0:00
0:00
edit
Autoscroll
slow
fast
+/-
esc
set tempo
stop
Artist- A Perfect Circle
Song - 3 Libras
Tab- By Jonathan Bissonnette

Tuning- C# F# B E G# C#

Intro

Finger picking on an acoustic

|----------------------------------------|
|-3-----3---3-----3---3-----3---/7-----7-|
|---0---------0---------0----------0-----|
|----------------------------------------|
|-3---3-----3---3-----3---3-----/7---7---|
|----------------------------------------|

|-------------------------------------------|
|-\3-----3---3-----3---/10-------10/7-----7-|
|----0---------0------------0---------0-----|
|-------------------------------------------|
|-\3---3-----3---3-----/10----10---/7---7---|
|-------------------------------------------|

|-----------------------------------------|
|-\3-----3---3-----3---3-----3---/7-----7-|
|----0---------0---------0----------0-----|
|-----------------------------------------|
|-\3---3-----3---3-----3---3-----/7---7---|
|-----------------------------------------|

|-------------------------------------------|
|-\3-----3---3-----3---/10-------10/7-----7-|
|----0---------0------------0---------0-----|
|-------------------------------------------|
|-\3---3-----3---3-----/10----10---/7---7---|
|-------------------------------------------|

|----------------------------------------|
|-8------8--8------8--8------8-----8-----|
|----0---------0---------0--------0------|
|--------------------------------7-------|
|-8----8----8----8----8----8----8--------|
|----------------------------------------|

Verse

|---------------------------------------|
|-3-----3---3-----3---5-----5---6-----6-|
|---0---------0---------0---------0-----|
|---------------------------------------|
|-3---3---------------5---5-------------|
|-----------3---3---------------6---6---|

At the end of the forth time
|---------|
|-7-----7-|
|---0-----|
|---------|
|-7---7---|
|---------|

Chorus

|------------------------------------------|
|-3-----3---3-----3---3-----3--/10------10-|
|---0---------0---------0----------0-------|
|------------------------------------------|
|-3---3-----3---3-----3---3----/10---10----|
|------------------------------------------|

|----------------------------------------|
|-\7-----7---7-----7---7-----7---7-----7-|
|----0---------0---------0---------0-----|
|----------------------------------------|
|-\7---7-----7---7-----7---7-----7---7---|
|----------------------------------------|

At the end of the chorus

|---|
|-8-|
|-0-|
|-7-|
|-8-|
|---|

Verse 2- same as 1st verse

Chorus 2- same as 1st chorus

Bridge

|---------------------------------------------|
|-3--3-3-3---3--3-3-3--------------4--4-4-4---|
|-4--4-4-4---4--4-4-4---8--8-8-8---5--5-5-5---|
|-5--5-5-5---5--5-5-5---8--8-8-8---6--6-6-6---|
|-5--5-5-5---5--5-5-5---6--6-6-6---6--6-6-6---|
|-3--3-3-3---3--3-3-3---6--6-6-6---4--4-4-4---| 4x


Bridge-part two

|----------------------------------------|
|-3-----3---3-----3---3-----3---/7-----7-|
|---0---------0---------0----------0-----|
|----------------------------------------|
|-3---3-----3---3-----3---3-----/7---7---|
|----------------------------------------|

|------------------------------------------|
|-3-----3---3-----3---/10-------10/7-----7-|
|---0---------0------------0---------0-----|
|------------------------------------------|
|-3---3-----3---3-----/10----10---/7---7---|
|------------------------------------------|

|----------------------------------------|
|-3-----3---3-----3---3-----3---/7-----7-|
|---0---------0---------0----------0-----|
|----------------------------------------|
|-3---3-----3---3-----3---3-----/7---7---|
|----------------------------------------|

|------------------------------------------|
|-3-----3---3-----3---/10-------10/7-----7-|
|---0---------0------------0---------0-----|
|------------------------------------------|
|-3---3-----3---3-----/10----10---/7---7---|
|------------------------------------------|

|--------------------------------|
|-/8-----8--8-----8--8-----8---8-|
|----0--------0--------0---------|
|--------------------------------|
|-/8---8----8---8----8---8-----8-|
|--------------------------------|

Outro

|------------------------------|
|------------------------------|
|-9-7-9-7-9-11-16-19-11-9-7-12-|
|-x-x-x-x-x--x--x--x--x-x-x--x-|
|-7-5-7-5-7--9-14-17--9-7-5-10-|
|------------------------------|
tremelo....................

figure out the tremeloing time yourself

End



************************************

| x  Dead note
| /  Slide up

************************************

            
            
Suggest correction
Creating personal tab
Creating personal tab
You can edit any tab online and save it as your Personal.

You can edit, replace or remove any tab part or add personal notes – all changes will be seen only by you.

Personal tabs can be accessed anytime from any device, even offline.
Learn more »
comments
print report bad tab
31 comments total. Showing first comments.
-1 reply
kittie420 0 May 01, 2002 08:00 PM

theres somthing wrong with the timing but its still good! umm... it needs somthing. maybe you can find it.

+4 reply
swatch 133 Dec 11, 2002 07:00 PM

man i just cant understand the outro. is it all at once or does each power chord repeats itself??

0 reply
phil_woodward 10 Dec 20, 2002 07:00 PM

what the hell is with the tuning???! im probably gunna sound like an idiot but i think i tuned my guitar corectly ive done it a million times but this tuning doesnt sound anything like 3 libras...explain plz?!?

guest
Wanna post a correction for this tab? Suggest correction