Oops, an error
Loading. Please wait.

Aaromale intro tab

2,638 views 42 this week
1 commentread comment
1 2 3 4 5
x 5
add to favorites
×
Save as Personal and add changes to this tab that will be seen only by you. Learn more ›
×
You can save this tab as Personal to edit and correct it or add notes. All changes will be seen only by you. Learn more »
launch autoscroll
font size
0
reset
how to read this tab
guitar tuner
edit
Autoscroll
slow
fast
+/-
esc
set tempo
stop
Author
Difficulty
Sugar Plum Fairy Sugar Plum Fairy!

Strumming pattern: DDD*D DD 


[Intro]

     Em               Em                    A                 A7
e|---0----------------0------------------|--0---------------3-----------------|
B|---0----------------0------------------|--2---------------2-----------------|
G|---0----------------0------------------|--2---------------2-----------------|
D|---2----------------2------------------|--2---------------2-----------------|
A|-0h2--------------0h2----------------2-|--0---------------0------------5-7v-|
E|---0----------------0------------0h3---|---------------------------5/7------|



   Em                 Em                   A                 A7
e|--0-----------------0-------5/7-5-3-5-|--0----------------------------------|
B|--0-----------------0-----------------|--2-----------------3-5--------------|
G|--0-----------------0-----------------|--2---------------2------------------|
D|--2-----------------2-----------------|--2----------------------------------|
A|--2-----------------2-----------------|--0-------------0------------5-------|
E|--0--------------2v-0-----------------|-------------------------5/7---7-5-2-|



   Em                 Em                   A                 A7
e|--0-----------------0---------3/5-3-5-|--0-----------------3-3-3-3-3--3-2-0-|
B|--0------------3h5--0-----------------|--2-----------------2----------------|
G|--0-----------------0-----------------|--2-----------------2----------------|
D|--2-----------------2-----------------|--2-----------------2----------------|
A|--2-----------------2-----------------|--0-----------------0----------------|
E|--0-----------------0-----------------|-------------------------------------|



************************************

| h  Hammer-on
| /  Slide up
| v  Vibrato

************************************

            
            
Suggest correction
Creating personal tab
Creating personal tab
You can edit any tab online and save it as your Personal.

You can edit, replace or remove any tab part or add personal notes – all changes will be seen only by you.

Personal tabs can be accessed anytime from any device, even offline.
Learn more »
comments
print report bad tab
1 comment total.
0 reply
veeravenkat6666 10 Aug 08, 2017 04:06 AM

can u please explain strumming pattern

guest
You may want to rate the tab now too:
select rating
Wanna post a correction for this tab? Suggest correction