Oops, an error
Loading. Please wait.

Just Another One tab

version 1
version 1

Whole song

4,407 views 1 this week
no commentswrite comment
1 2 3 4 5
2 more votes to show rating
add to favorites
×
Save as Personal and add changes to this tab that will be seen only by you. Learn more ›
×
You can save this tab as Personal to edit and correct it or add notes. All changes will be seen only by you. Learn more »
launch autoscroll
font size
0
reset
how to read this tab
guitar tuner
edit
Autoscroll
slow
fast
+/-
esc
set tempo
stop
This song is played with a capo when their playing it live


I just heard some chords and try to tab it out so here

enjoy!

Intro:

(I just guess this chords right here it may not sound right but if you have the right 
pls say it right away)


e-----------------------------------------------------------|
B-----7-----then-------6--------then------9-----------------|
G---6----------------5------------------8-------------------|  x2
D-----------------------------------------------------------|
A-----------------------------------------------------------|
E-----------------------------------------------------------|

Verse

(this part is actually piano but you can play it on guitar)


e-----------------------------------------------------------|   (just
B-----------------------------------------------------------|  figure the
G---------------3-------------------------------------------|   strum)
D---4-----------3-----------6-------------------------------|
A---4--then---1---then------6-------------------------------|
E-2-----------------------4---------------------------------|

Just do those the whole verse

Chorus:

e-----------------------------------------------------------|
B-----------------------------------------------------------|
G-----------------------------------------6-----------------|
D-----6----------8----------4-------------6-----------------|  x3
A-----6--then----8--then----4---then----4-------------------|
E---4----------6----------2---------------------------------|

then do this at the end

at the part 'besides I think were done I'm just another one'

e-----------------------------------------------------------|
B-----------------------------------------------------------|
G-----------------------------------------------------------|
D-----6-----------------------------------------------------|
A-----6-----------------------------------------------------|
E---4-------------------------------------------------------|

then do this but strumming is different


e-----------------------------------------------------------|
B-----------------------------------------------------------|
G---------------3-------------------------------------------|
D---4-----------3-----------6-------------------------------|
A---4--then---1---then------6-------------------------------|
E-2-----------------------4---------------------------------|

Verse 2:

(strum like the first part)

e-----------------------------------------------------------|
B-----------------------------------------------------------|
G---------------3-------------------------------------------|
D---4-----------3-----------6-------------------------------|
A---4--then---1---then------6-------------------------------|
E-2-----------------------4---------------------------------|


then still the same chords but strum slower in the part 'she knows how to bring me down'

then drum solo no guitar


Chorus:

e-----------------------------------------------------------|
B-----------------------------------------------------------|
G-----------------------------------------6-----------------|
D-----6----------8----------4-------------6-----------------|  x3
A-----6--then----8--then----4---then----4-------------------|
E---4----------6----------2---------------------------------|

then do this at the end

at the part 'besides I think were done I'm just another one'

e-----------------------------------------------------------|
B-----------------------------------------------------------|
G-----------------------------------------------------------|
D-----6-----------------------------------------------------|
A-----6-----------------------------------------------------|
E---4-------------------------------------------------------|

then do the first chords same strumming in the first part

e-----------------------------------------------------------|
B-----------------------------------------------------------|
G---------------3-------------------------------------------|
D---4-----------3-----------6-------------------------------|
A---4--then---1---then------6-------------------------------|
E-2-----------------------4---------------------------------|


do this until the part 'and this is all she knows'


then do chorus chords acoustic only


e-----------------------------------------------------------|
B-----------------------------------------------------------|
G-----------------------------------------6-----------------|
D-----6----------8----------4-------------6-----------------|
A-----6--then----8--then----4---then----4-------------------|
E---4----------6----------2---------------------------------|


then do the same chords

do this on the part 'and I can care less about her im just another one'

e-----------------------------------------------------------|
B-----------------------------------------------------------|
G-----------------------------------------------------------|
D-----6-----------------------------------------------------|
A-----6-----------------------------------------------------|
E---4-------------------------------------------------------|


well thats the whole song there are some leads on the verse and still working on it so 
hope you like my tab :D


►Daryl_6601◄

            
            
Suggest correction
Creating personal tab
Creating personal tab
You can edit any tab online and save it as your Personal.

You can edit, replace or remove any tab part or add personal notes – all changes will be seen only by you.

Personal tabs can be accessed anytime from any device, even offline.
Learn more »
Give kudos to tab author, rate the tab!
1 2 3 4 5
comments
print report bad tab
guest
Wanna post a correction for this tab? Suggest correction