Oops, an error
Loading. Please wait.

Jaws 3 People 0 tab

4,318 views 1 this week
2 commentsread comments
1 2 3 4 5
1 last vote to show rating
add to favorites
×
Save as Personal and add changes to this tab that will be seen only by you. Learn more ›
×
You can save this tab as Personal to edit and correct it or add notes. All changes will be seen only by you. Learn more »
launch autoscroll
font size
0
reset
how to read this tab
guitar tuner
edit
Autoscroll
slow
fast
+/-
esc
set tempo
stop
Jaws 3 People 0 - A Wilhelm Scream
Tabbed by Rhys, Iam_2d[at]hotmail[dot]com

Note:i know some of this may be wrong but it'll give you a rough jist enough to work it 
form there on out, Go easy this is my first tab.

Any Questions or if you wanna help me finish this off mail me

Tab By Rhys

p= pull off
h- hammer on
* Palm Mute
/ slide
x muted Strings
~ hold

Intro:

e---------------------|
b---------------------|
g---------------------|
d---------------------|
a-------2--------2-2--|
e-0-2-3---3-2-3--0-0--|

"lets get the f*** f***......"

e---------------------|
b---------------------|
g-8888-7777-666-555---|
d-9999-8888-777-666---| X3
a---------------------|
e---------------------|

  *
e-----------------------|
b-----------------------|
g-----------------------|
d-x-4----------5-5-5-7--|
a-x-2--2--5--5-3-3-3-5--|
e------0--2--3----------|

Verse:
"Dont test the captains...."

  * **     *  * **             ** *     *
e------------------------------------------0000-------|
b------------------------------------------77550000---|
g-----2h4p2-2------7h9p7/6h7p6-----2h4p2-2-----7766---|
d--5-------5---5-----------------5------5-------------|
a-2-22--------2-22-------------22-2-------------------|
e-----------------------------------------------------|

 * **     *  * **             ** *     *
e-------------------------------------------------|
b-------------------------------------------------|
g-----2h4p2-2------7h9p7/6h7p6-----2h4p2-2--------|
d--5-------5---5-----------------5------5---------|
a-2-22--------2-22-------------22-2--------2-2-2--|
e-------------------------------------------------|

"And like a drunk spills boons on his varsity letter.."

e------------------------|---------------|
b------------------------|---------------|
g----x-------------------|---------------|
d-44-x-0h2h4p2p0--X4 then|---------------|
a-22-x-------------------|-5-4-2-4-5-4-2-|
e------------------------|---------------|

e------------------------|---------------------|
b------------------------|----------7-7--------|
g-------9/11\9-----------|----------0-0--------|
d-------x/x-\x---x4 then-|----------9-9--77----|
a-12-99-7/9-\7-----------|-5-4-2-4--7-7--55----|
e-10-77------------------|---------7-----------|

"when the rest of the shipwrecked long drowned in their graves.."

e------------------------------------|
b------------------------------------|
g------------------------------------|
d-444-7777----------777-777--4-2-2---|
a-222-5555-555-7777-555-444--2-0-4---|
e----------333-5555------------------|

"Please help, my party flew away with the ocean mist.."

e|-------------------------------------------------------------|
B|-------------------------------------------------------------|
G|-------------------------------------------------------------|
D|---0----0----0--0-0--0----0----0--0-0------------------------|
A|--2----4----5--5----5----4----2--2---------------------------|
E|-3--3/5--5/7--7--7-7--7\5--5\3--3--3-------------------------|

"But when the Night Rangers found me..."

e|--------------------------------------------------------0000---------|
B|------------------------------------------------------3-3333---------|
G|-----------------------------------------------------0--0000---------|
D|-444444-7p00-4p00-7p00-4~-444444-7p00-4p00-7p00-4~--2---2222---------|
A|-222222-------------------222222-------------------3----3333-2-2-----|
E|-------------------------------------------------------------0-0-----|

Verse 2

"A hero's humility is a foolish amenity... "


  * **     *  * **             ** *     *
e------------------------------------------0000-------|
b------------------------------------------77550000---|
g-----2h4p2-2------7h9p7/6h7p76----2h4p2-2-----7766---|
d--5-------5---5-----------------5------5-------------|
a-2-22--------2-22-------------22-2-------------------|
e-----------------------------------------------------|

 * **     *  * **             ** *     *
e-------------------------------------------------|
b-------------------------------------------------|
g-----2h4p2-2------7h9p7/6h7p6-----2h4p2-2--------|
d--5-------5---5-----------------5------5---------|
a-2-22--------2-22-------------22-2--------2-2-2--|
e-------------------------------------------------|

"Cause they were jumping off the backs of only sons...."
e------------------------|----------------|
b------------------------|----------------|
g----x-------------------|----------------|
d-44-x-0h2h4p2p0--X4 then|----------------|
a-22-x-------------------|-5-4-2-4-5-4-2-4|
e------------------------|----------------|

"Lets Get The F*** F***...."

e|------------|
B|------------|
G|------------|
D|-0-7-5-4----| Do this 8 times
A|------------|
E|------------|

e|--------------------------------------------------------|
B|-------------------88888--------------------------------|
G|-------------------99999--------------------------------|
D|---0-----4-----0---xxxxx---44-----557-------------------|
A|--2-2---2-2---2-2--77777---22-242-335-7-9---------------|
E|-3---3-0---0-3---3------------020-----5-7---------------|

(bass Guitar Run)

e|------------|
B|-18--18-----|
G|-15--15-----|
D|-16--16-----|
A|-14--14-----|
E|------------|

e|-------------------------|-------------------------|-------------------------|------------------------|
B|-------------------------|-------------------------|-------------------------|------------------------|
G|-------------------------|-------------------------|-------------------------|------------------------|
D|-------0-2-4-4-2-0-------|-------2-4-5-5-4-2-------|-------4-5-7-7-5-4-------|-------5-7-9-9-7-5------|
A|-0-2-4-------------4-2-0-|-2-4-5-------------5-4-2-|-4-5-7-------------7-5-4-|-5-7-9-------------9-7-5|
E|-------------------------|-------------------------|-------------------------|------------------------|

Solo
Guitar 1
e|---------------------------|-----------------------------------|
B|---------------7-----------|-------------------3-3-2-0---------|
G|-------7-----7-----7-4-6-7-|-7--7-6-4-6--6-4-2---------2-0-----|
D|---4-7---4-7-----7---------|-------------------------------4---|
A|-5-------------------------|-----------------------------------|
E|---------------------------|-----------------------------------|

Guitar 2
e|-------------------7-10-12-14-|-14--14-12-10-12--12-10---------|
B|---------------3-7------------|------------------------14------|
G|-------4-----4----------------|--------------------------------|
D|-----4-----4------------------|--------------------------------|
A|-2-5-----5--------------------|--------------------------------|
E|------------------------------|--------------------------------|

Guitar 1 
e|----------------------------|
B|-----2----------------------|
G|-----2----------------------|
D|-----2---4---4-2-0-2-0------|
A|-2---0---4-------------4-4--|
E|-3-------2------------------|

Guitar 2
e|--------2---2--5--------3-----3---7-------5-----5--9---9------------------------|
B|-0--3-----3-------2--5-----5-----------7-----7-----------10----10---------------|
G|------------------------------------7-----------------------11----11------------|
D|---------------------------------------------------------------------12---11----|
A|--------------------------------------------------------------------------------|
E|--------------------------------------------------------------------------------|

Guitar 1 Solo
                           3X|
e|---------------------------|-5----------------------------------------------------------------------------|
B|-------------5-7-5---------|--7-5--5-7-x-7-(7)-5-----------------------7--7--7-5--------------------------|
G|-4--4-6-7-4--------7-7-6-4-|------7----------------7-(7)---7-9-9-9-9------------(7)--7---7----------------|
D|---------------------------|-----------------------------9-----------------------------9---9-7---7-7---7--|
A|---------------------------|-------------------------------------------------------------------9-----9---9|
E|---------------------------|------------------------------------------------------------------------------|
                            Guitar 2
                            e|-2-------------------
                            B|---3-2---2-----------
                            G|-------4-------------
Dual Riff

Guitar 1
e|---------------------------------|---------------------------------|--------------------------------|
B|-7-0-0-5-0-0-7-0-7-0-0-5-0-0-7-0-|-7-0-0-5-0-0-7-0-8-0-7-0-5-0-7-0-|-7-0-0-5-0-0-7-0-7-0-0-5-0-0-7-0|
G|---------------------------------|---------------------------------|--------------------------------|

e|---------------------------------|
B|-5-0-0-3-0-0-2-0-0-0-0-5-5-5-5-5-|
G|---------------------------------|

Guitar 2

D|-12-0-0-11-0-0-12-0-12-0-0-11-0-0-12-0-|
A|---------------------------------------|
E|---------------------------------------|







Outro
"Oh, when I saw them floating out to the river"

e|---------------------------------------------------------------------------|
B|---------------------------------------------------------------------------|
G|----------------------------------------------------------10-9-------10-9--|
D|------------------------------------------------------7-7-x--x---7-7-x--x--|
A|-9999999999999999-7777777777777777-5555555555555555-995-5-8--7-775-5-8--7--|
E|-7777777777777777-5555555555555555-3333333333333333-77---------99----------|

e|---------------------------------------------------------------------------|
B|---------------------------------------------------------------------------|
G|---------------------------------------------------------------------------|
D|---------------------------------------------------------------------------|
A|-9999999999999999-7777777777777777-5555555-9-2-----------------------------|
E|-7777777777777777-5555555555555555-3333333-7-0-----------------------------|

e|-------------------|
B|-------------------|
G|9bp7-7-9-7-9b-9b-9~| Do this Twice
D|----9--------------|
A|-------------------|
E|-------------------|

e|12bp10----10-12-10-12b-12b-12---------------------------------------------|
B|-------12-----------------------------------------------------------------|
G|-------------------------------8p7p0-7p6p0-6p5p0-5p4p0-4p3p0-3p2p0--------|
D|--------------------------------------------------------------------------|
A|-------------------------------------------------------------------2-3----|
E|-------------------------------------------------------------------0-1----|


THE END

as i said if want to help me finish it give me a mail

            
            
Suggest correction
Creating personal tab
Creating personal tab
You can edit any tab online and save it as your Personal.

You can edit, replace or remove any tab part or add personal notes – all changes will be seen only by you.

Personal tabs can be accessed anytime from any device, even offline.
Learn more »
Give kudos to tab author, rate the tab!
1 2 3 4 5
comments
print report bad tab
2 comments total.
0 reply
TheKingisDead 10 Jun 12, 2008 01:22 PM

Nice! I applaud you for being the first to tab out any songs off their new CD.

0 reply
Ba5 82 Jul 18, 2008 02:07 AM

Decent tab, you missed on some details, but it's a start
Check youtube.com/watch?v=uPYxEHKFb4Y really good cover including solos

guest
Wanna post a correction for this tab? Suggest correction