Oops, an error
Loading. Please wait.

Faith And Doubt tab

1,135 views 6 this week
no commentswrite comment
1 2 3 4 5
2 more votes to show rating
add to favorites
×
Save as Personal and add changes to this tab that will be seen only by you. Learn more ›
×
You can save this tab as Personal to edit and correct it or add notes. All changes will be seen only by you. Learn more »
launch autoscroll
font size
0
reset
how to read this tab
guitar tuner
edit
Autoscroll
slow
fast
+/-
esc
set tempo
stop
-------------------------------------------------------------------------------
                             Faith and Doubt - Aaron Espe
-------------------------------------------------------------------------------
Tabbed by: Adam Starr
Email:-----

Tuning: Standard Tuning with CAPO ON THE 2nd FRET
Fret numbers are in relation to the capo

Intro:

e|--------------------------------2---------------0--------------|
B|-------------3--0------------3----3----------3----3------------|
G|2----------2---------------2--------0------0--------0----------|
D|0-0-0-0-0-0-0-0-0-0-0-0-0-0-0-0-0-0-0-0-0-0-0-0-0-0-0-0-0-0-0-0|
A|---------------------------------------------------------------|
E|---------------------------------------------------------------|

The first verse goes like this:


e|---------------------------------------------------------------|
B|----------------0-------------------------------0--------------|
G|2-------------------------------2------------------------------|
D|0-0-0-0-0-0-0-0-0-0-0-0-0-0-0-0-0-0-0-0-0-0-0-0-0-0-0-0-0-0-0-0|
A|---------------------------------------------------------------|
E|---------------------------------------------------------------|

e|---------------------------------------------------------------|
B|-------------------3---------------3---------------3-----------|
G|0---------------4---------------2---------------4--------------|
D|0-0-0-0-0-0-0-0-0-0-0-0-0-0-0-0-0-0-0-0-0-0-0-0-0-0-0-0-0-0-0-0|
A|---------------------------------------------------------------|
E|---------------------------------------------------------------|

e|---------------------------------------------------------------|
B|-------------------3---------------3---------------3---------3-|
G|0---------------4---------------2---------------4----------4---|
D|0-0-0-0-0-0-0-0-0-0-0-0-0-0-0-0-0-0-0-0-0-0-0-0-0-0-0-0-0-0-0-0|
A|---------------------------------------------------------------|
E|---------------------------------------------------------------|

e|2---------------0----------------------------------------------|
B|--3----------3----3----------3---------------3--0------------3-|
G|----0------0--------0------0----2----------2---------------2---|
D|0-0-0-0-0-0-0-0-0-0-0-0-0-0-0-0-0-0-0-0-0-0-0-0-0-0-0-0-0-0-0-0|
A|---------------------------------------------------------------|
E|---------------------------------------------------------------|

e|2---------------0------------------|
B|--3----------3----3----------------|
G|----0------0--------0--------------|
D|0-0-0-0-0-0-0-0-0-0-0-0-0-0-0-0-0-0|
A|-----------------------------------|

The second verse starts here and a cello or something starts playing.
Each chord is strummed in straight eighths.
  E               A               E               A
e|---------------------------------------------------------------|
B|3-3-3-3-3-3-3-3-0-0-0-0-0-0-0-0-3-3-3-3-3-3-3-3-0-0-0-0-0-0-0-0|
G|2-2-2-2-2-2-2-2-0-0-0-0-0-0-0-0-2-2-2-2-2-2-2-2-0-0-0-0-0-0-0-0|
D|0-0-0-0-0-0-0-0-0-0-0-0-0-0-0-0-0-0-0-0-0-0-0-0-0-0-0-0-0-0-0-0|
A|0-0-0-0-0-0-0-0-2-2-2-2-2-2-2-2-0-0-0-0-0-0-0-0-2-2-2-2-2-2-2-2|
E|---------------------------------------------------------------|

  B               A               E               A
e|--------------------------------2-2-2-2-2-2-2-2-3-3-3-3-3-3-3-3|
B|2-2-2-2-2-2-2-2-0-0-0-0-0-0-0-0-3-3-3-3-3-3-3-3-0-0-0-0-0-0-0-0|
G|2-2-2-2-2-2-2-2-0-0-0-0-0-0-0-0-2-2-2-2-2-2-2-2-0-0-0-0-0-0-0-0|
D|2-2-2-2-2-2-2-2-0-0-0-0-0-0-0-0-0-0-0-0-0-0-0-0-0-0-0-0-0-0-0-0|
A|4-4-4-4-4-4-4-4-2-2-2-2-2-2-2-2-0-0-0-0-0-0-0-0-2-2-2-2-2-2-2-2|
E|---------------------------------------------------------------|
                                  Hey Lord save me!....
  B               A               E               A
e|--------------------------------2-2-2-2-2-2-2-2-3-3-3-3-3-3-3-3|
B|2-2-2-2-2-2-2-2-0-0-0-0-0-0-0-0-3-3-3-3-3-3-3-3-0-0-0-0-0-0-0-0|
G|2-2-2-2-2-2-2-2-0-0-0-0-0-0-0-0-2-2-2-2-2-2-2-2-0-0-0-0-0-0-0-0|
D|2-2-2-2-2-2-2-2-0-0-0-0-0-0-0-0-0-0-0-0-0-0-0-0-0-0-0-0-0-0-0-0|
A|4-4-4-4-4-4-4-4-2-2-2-2-2-2-2-2-0-0-0-0-0-0-0-0-2-2-2-2-2-2-2-2|
E|---------------------------------------------------------------|

(second verse only)
  E               E
e|2-2-2-2-2-2-2-2-2-2-2-2-2-2-2-2|
B|3-3-3-3-3-3-3-3-3-3-3-3-3-3-3-3|
G|2-2-2-2-2-2-2-2-2-2-2-2-2-2-2-2|
D|0-0-0-0-0-0-0-0-0-0-0-0-0-0-0-0|
A|0-0-0-0-0-0-0-0-0-0-0-0-0-0-0-0|
E|-------------------------------|


The chorus ("caught somewhere between faith and doubt...") goes like this:
  A           B   C#min   B       A           B   C#min   E/G#
e|---------------------------------------------------------------|
B|0-0-0-0-0-0-2-2-3-3-3-3-2-2-2-2-0-0-0-0-0-0-2-2-3-3-3-3-3-3-3-3|
G|0-0-0-0-0-0-2-2-4-4-4-4-2-2-2-2-0-0-0-0-0-0-2-2-4-4-4-4-2-2-2-2|
D|0-0-0-0-0-0-2-2-4-4-4-4-2-2-2-2-0-0-0-0-0-0-2-2-4-4-4-4-0-0-0-0|
A|2-2-2-2-2-2-0-0-2-2-2-2-0-0-0-0-2-2-2-2-2-2-0-0-2-2-2-2-0-0-0-0|
E|3-3-3-3-3-3---------------------3-3-3-3-3-3-------------2-2-2-2|
You can play the chorus with bar chords if you'd like

The guitar part for the third verse is the same as that for the second verse
Aaron returns to the chorus after the third verse. The song ends with the intro riff.

Lyrics:

I read that Jesus walked the stormy sea and he pulled Peter up
Said, Man you gotta believe me
And he shared with his disciples
Said, Heres how to be free
If you asked me I'd say most days
I totally agree
But right now I can't pray, I don't feel like talking to God
I need somebody out there with a little skin on them

Hmm Mmm-mm-mmm

When I read that story I heard thunder everywhere
I could hear that boat crashing on the waves
The bow is in the air
And I have respect for Peter who had faith enough to dare
Step out onto the water
While all the others stared
And when hell is on your back,
Sometimes you think you got strength and you say,
Hey Lord, save me, I'm drownin' out here!

But I'm caught somewhere between Faith and Doubt
And I feel like I'm never going to find my way back outta here.

Last night I felt free just like I was a kid
So I layed in the grass and thought of all the things I did
When I didn't know of pressure it was easy to forgive
You didnt have to be perfect
Not in my neighborhood
I don't know what year things became so unclear but I'm still here.
But I'm caught somewhere between Faith and Doubt
And I feel like I'm never going to find my way back outta here. 

| /  slide up
| \  slide down
| h  hammer-on
| p  pull-off
| ~  vibrato
| +  harmonic
| x  Mute note
===============================================================================

            
            
Suggest correction
Creating personal tab
Creating personal tab
You can edit any tab online and save it as your Personal.

You can edit, replace or remove any tab part or add personal notes – all changes will be seen only by you.

Personal tabs can be accessed anytime from any device, even offline.
Learn more »
Give kudos to tab author, rate the tab!
1 2 3 4 5
comments
print report bad tab
guest
You may want to rate the tab now too:
select rating
Wanna post a correction for this tab? Suggest correction