Oops, an error
Loading. Please wait.

Heaven Knows tab

73 views 1 this week
no commentswrite comment
1 2 3 4 5
3 more votes to show rating
add to favorites
×
Save as Personal and add changes to this tab that will be seen only by you. Learn more ›
×
You can save this tab as Personal to edit and correct it or add notes. All changes will be seen only by you. Learn more »
launch autoscroll
font size
0
reset
how to read this tab
guitar tuner
edit
Autoscroll
slow
fast
+/-
esc
set tempo
stop
Author
Difficulty
Notes :
* I wrote the entire song but both choruses are identical, and the verses and the outro are similar.
* I'm not very good at writing bends, pre-bends, releases, etc. I wrote "b" for bend and you'll have to
  find the right movement by ear.


[Verse 1]

     Cm                   Bb    Ab  Cm                            Bb    Ab    Cm
e|--------------------------6---4---3~------------------------------6---7/8---8~---|
B|------4--4--3-------------------------------4--4/6--4----------------------------|
G|---5-----------3/5~-----5---5---5--------5-------------3/5~-----7---7-----8------|
D|---------------------------------------------------------------------------------|
A|---------------------------------------------------------------------------------|
E|---------------------------------------------------------------------------------|


[Chorus]

   Bb     Ab      Cm     G                Cm     Bb   Ab     Cm      G                 Cm
e|-----------------------3-------------------------------------------7---------------------|
B|--------4-----------------3------------------------------------------6---(6)--(6)----4---|
G|---3/5-----5--3/5~-----------4--------4/5~-------3/5--5/7--5~----------7--7/8--7--5--5---|
D|--------------------------------5----------------------------------------------------5---|
A|-----------------------------------5-----------------------------------------------------|
E|-----------------------------------------------------------------------------------------|

     Eb                 Cm             Eb                              Cm
e|-------------------------------------6/8--8/10--10/11--11/13--13/15--15~-----------------|
B|-----------------------------------------------------------------------------------------|
G|---3--5--7--8--10--8--10/12~---------3/5--5/7----7/8----8/10--10/12--12~-----------------|
D|-----------------------------------------------------------------------------------------|
A|-----------------------------------------------------------------------------------------|
E|-----------------------------------------------------------------------------------------|

    Eb                 Cm         Bb                Ab                G
e|-----------------------------------------------------------------------------------------|
B|--------------------------------11--11-11--11-11--9---9--9---9--9---8--------------------|
G|--3--5--7--8--10--8--10/12~--------------------------------------------7--7--7--8--8/10~-|
D|--------------------------------8---8--8---8--8---6---6--6---6--6---5--------------------|
A|-----------------------------------------------------------------------------------------|
E|-----------------------------------------------------------------------------------------|


[Verse 2]

     Cm                   Bb    Ab  Cm                            Bb    Ab    Cm
e|--------------------------6---4---3~------------------------------6---7/8---8~---|
B|------4--4--3-------------------------------4--4/6--4----------------------------|
G|---5-----------3/5~-----5---5---5--------5-------------3/5~-----7---7-----8------|
D|---------------------------------------------------------------------------------|
A|---------------------------------------------------------------------------------|
E|---------------------------------------------------------------------------------|


[Chorus]

   Bb     Ab      Cm     G                Cm     Bb   Ab     Cm      G                 Cm
e|-----------------------3-------------------------------------------7-----------------8---|
B|--------4-----------------3------------------------------------------6---------------4---|
G|---3/5-----5--3/5~-----------4--------4/5~-------3/5--5/7--5~----------7--7/8--7--5--5---|
D|--------------------------------5--------------------------------------------------------|
A|-----------------------------------5-----------------------------------------------------|
E|-----------------------------------------------------------------------------------------|

     Eb                 Cm             Eb                              Cm
e|-------------------------------------6/8--8/10--10/11--11/13--13/15--15~-----------------|
B|-----------------------------------------------------------------------------------------|
G|---3--5--7--8--10--8--10/12~---------3/5--5/7----7/8----8/10--10/12--12~-----------------|
D|-----------------------------------------------------------------------------------------|
A|-----------------------------------------------------------------------------------------|
E|-----------------------------------------------------------------------------------------|

    Eb                 Cm         Bb                Ab                G
e|-----------------------------------------------------------------------------------------|
B|--------------------------------11--11-11--11-11--9---9--9---9--9---8--------------------|
G|--3--5--7--8--10--8--10/12~--------------------------------------------7--7--7--8--8/10~-|
D|--------------------------------8---8--8---8--8---6---6--6---6--6---5--------------------|
A|-----------------------------------------------------------------------------------------|
E|-----------------------------------------------------------------------------------------|


[Solo]

             Cm                            Bb      Ab        Cm
e|-----------------------------------------6---6---4--4--3---3-------------|
B|----------------------4--6--6b--4--------6---6---4--4--3---4-------------|
G|--------3--5~---3--5---------------5-----7---7---5--5--4---5-------------|
D|--3--5-----------------------------------8---8---6--6--5---5-------------|
A|-----------------------------------------8---8---6--6--5---3-------------|
E|-----------------------------------------6---6---4--4--3-----------------|

    Cm                                      Bb      Ab       Cm
e|-----11-----10-----10/8-----8-----4--------------------------------------|
B|--8------7------6---------------------------(6)------------4~------------|
G|-------------------------8-----5-----6--6/7--7--7/8--7-----5~------------|
D|--------------------------------------------------------5----------------|
A|-------------------------------------------------------------------------|
E|-------------------------------------------------------------------------|

       Bb      Ab      Cm               G               Cm
e|--6-------6-------4--3--3----3------------------------3--3~--------------|
B|------------------------3h4--3--------3--3---3--4--6--4--4~--------------|
G|-----5/6-----4/5----------------5-----4--4---4--4--4---------------------|
D|-------------------------------------------------------------------------|
A|-------------------------------------------------------------------------|
E|-------------------------------------------------------------------------|

    Bb     Ab                        G                    Cm
e|---------10b--6--6h8--6-------------------------------7/8-----8--8\------|
B|--8b--6------------------8------------4-----3----------------------------|
G|----------------------------5----------------------7-------8-------------|
D|-----------------------------------5-----5-------------------------------|
A|-------------------------------------------------------------------------|
E|-------------------------------------------------------------------------|


[Outro]

     Cm                   Bb    Ab  Cm                            Bb    Ab    Cm
e|--------------------------6---4---3~------------------------------6---7/8---8~---|
B|------4--4--3-------------------------------4--4/6--4----------------------------|
G|---5-----------3/5~-----5---5---5--------5-------------3/5~-----7---7-----8------|
D|---------------------------------------------------------------------------------|
A|---------------------------------------------------------------------------------|
E|---------------------------------------------------------------------------------|

     Cm                   Bb    Ab  Cm
e|--------------------------6---4---3~----------------------------|
B|------4--4--3-------------------------------4--4/6--4-----------|
G|---5-----------3/5~-----5---5---5--------5-------------3/5~-----|
D|----------------------------------------------------------------|
A|----------------------------------------------------------------|
E|----------------------------------------------------------------|

    Bb    Ab    Cm
e|----6---7/8---8----------8-------8--11------11---10---8--8\-----|
B|----------------------------------------------------------------|
G|--7---7-----8-------8--8----8--8-------8--8----8----8-----------|
D|----------------------------------------------------------------|
A|----------------------------------------------------------------|
E|----------------------------------------------------------------|

     Bb    Ab  Cm
e|-----6---4---3~-------------------------------------------------|
B|-------------------------------4--4/6--4------------------------|
G|---5---5---5----------------5-------------3/5~------------------|
D|----------------------------------------------------------------|
A|----------------------------------------------------------------|
E|----------------------------------------------------------------|

    Bb    Ab    Cm
e|----6---7/8---8----------8-------8--11------11---10---8--8\-----|
B|----------------------------------------------------------------|
G|--7---7-----8-------8--8----8--8-------8--8----8----8-----------|
D|----------------------------------------------------------------|
A|----------------------------------------------------------------|
E|----------------------------------------------------------------|

     Bb    Ab  Cm
e|-----6---4---3~-------------------------------------------------|
B|-------------------------------4--4/6--4------------------------|
G|---5---5---5----------------5-------------3/5~------------------|
D|----------------------------------------------------------------|
A|----------------------------------------------------------------|
E|----------------------------------------------------------------|

    Bb    Ab    Cm
e|----6---7/8---8\------------------------------------------------|
B|----------------------------------------------------------------|
G|--7---7-----8---------------------------------------------------|
D|----------------------------------------------------------------|
A|----------------------------------------------------------------|
E|----------------------------------------------------------------|



***********************************

| /   Slide up
| \   Slide down
| h   Hummer-on
| ~   Vibrato
| b   Bend

***********************************

            
            
Suggest correction
Creating personal tab
Creating personal tab
You can edit any tab online and save it as your Personal.

You can edit, replace or remove any tab part or add personal notes – all changes will be seen only by you.

Personal tabs can be accessed anytime from any device, even offline.
Learn more »
Give kudos to tab author, rate the tab!
1 2 3 4 5
comments
print report bad tab
guest
You may want to rate the tab now too:
select rating
Wanna post a correction for this tab? Suggest correction