Oops, an error
Loading. Please wait.

Love Child bass

version 1
version 1

Whole song

Interactive

by Accept
1,748 views 1 this week
no commentswrite comment
1 2 3 4 5
3 more votes to show rating
add to favorites
×
Save as Personal and add changes to this tab that will be seen only by you. Learn more ›
×
You can save this tab as Personal to edit and correct it or add notes. All changes will be seen only by you. Learn more »
launch autoscroll
font size
0
reset
guitar tuner
edit
Autoscroll
slow
fast
+/-
esc
set tempo
stop
                                  Love Child                                    

Transcribed by emad

                                                                          Accept
Bass



     W                   W                   W                 
G||-------------------|-------------------|-------------------|
D||-------------------|-------------------|-------------------|
A||-------------------|-------------------|-------------------|
E||-------------------|-------------------|-------------------|


  W                   W                   E  E  H        E  E   
-------------------|-------------------|-----------------------|
-------------------|-------------------|-----------------------|
-------------------|-------------------|-----------------------|
-------------------|-------------------|--0--0--------------0--|


  W                   E  E  Q.     Q.        E  E  E  E  E  E  E  E   
-------------------|----------------------|--------------------------|
-------------------|----------------------|--------------------------|
-------------------|---------------5------|--L-----------------------|
-------------------|--0--0----------------|-----0--2--0--3--0--5--3--|


  E  E  E  E  E  E  E  E     E  E  E  E  E  E  E  E   
--------------------------|--------------------------|
--------------------------|--------------------------|
--------------------------|--------------------------|
--0--0--0--0--0--0--0--0--|--0--0--0--0--0--0--0--0--|


  E  E  E  E  E  E  E  E     E  E  E  E  E  E  E  E   
--------------------------|--------------------------|
--------------------------|--------------------------|
-----------------5--L-----|-----------------0--------|
--0--0--0--0--0--------0--|--0--0--0--0--0-----2--3--|


  E  E  E  E  E  E  E  E     E  E  E  E  E  E  E  E   
--------------------------|--------------------------|
--------------------------|--------------------------|
--------------------------|--------------------------|
--0--0--0--0--0--0--0--0--|--0--0--0--0--0--0--0--0--|


  E  E  E  E  E  E  E  E     E  E  E  E  E  E  E  E   
--------------------------|--------------------------|
--------------------------|--------------------------|
-----------------5--L-----|--------------------------|
--0--0--0--0--0--------0--|--0--0--0--0--0--3-----3--|


  E  E  E  E  E  E  E  E     E  E  E  E  E  E  E  E   
--------------------------|--------------------------|
--------------------------|--------------------------|
-----------------------5--|--L--5--5--5--5--5--5--5--|
--L--3--3--3--3--3--3-----|--------------------------|


  E  E  E  E  E  E  E  E     E  E  E  E  E  E  E  E   
--------------------------|--------------------------|
--------------------------|--------------------------|
--------------------------|--------------------------|
--0--0--0--0--0--0--0--0--|--0--0--0--0--0--0--0--3--|


  E  E  E  E  E  E  E  E     E  E  E  E  E  E  E  E   
--------------------------|--------------------------|
--------------------------|--------------------------|
-----------------------5--|--L--5--5--5--5--5--5--0--|
--L--3--3--3--3--3--3-----|--------------------------|


  E  E  E  E  E  E  E  E     E  E  E  E  E  E  E  E   
--------------------------|--------------------------|
--------------------------|--------------------------|
--------------------------|--------------------------|
--0--0--0--0--0--0--0--0--|--0--0--0--0--0--0--0--7--|


  E  E  E  E  E  E  E  E     E  E  E  E  E  E  E  E     E  E  E  E  E  Q    E   
--------------------------|--------------------------|-------------------------|
--------------------------|--------------------------|-------------------------|
--------------------------|--------------------------|-------------------------|
--L--7--7--7--7--7--7--7--|--7--7--7--7--7--7--7--7--|--7--7--7--7--7--5----7--|


  E  E  E  E  E  E  E  E     E  E  E  E  E  E  E  E   
--------------------------|--------------------------|
--------------------------|--------------------------|
--------------------------|--------------------------|
--L--7--7--7--7--7--7--3--|--L--3--3--5--L--5--5--7--|


  E  E  E  E  E  E  E  E     E  E  E  E  E  E  E  E   
--------------------------|--------------------------|
--------------------------|--------------------------|
--------------------------|--------------------------|
--L--7--7--5--L--5--5--3--|--L--3--3--3--3--3--3--3--|


  E  E  E  E  E  E  E  E     E  E  E  E  E  E  E  E   
--------------------------|--------------------------|
--------------------------|--------------------------|
--------------------------|--------------------------|
--3--0--2--0--3--0--5--3--|--0--0--0--0--0--0--0--0--|


  E  E  E  E  E  E  E  E     E  E  E  E  E  E  E  E   
--------------------------|--------------------------|
--------------------------|--------------------------|
--------------------------|-----------------5--L-----|
--0--0--0--0--0--0--0--0--|--0--0--0--0--0--------0--|


  E  E  E  E  E  E  E  E     E  E  E  E  E  E  E  E   
--------------------------|--------------------------|
--------------------------|--------------------------|
-----------------0--------|--------------------------|
--0--0--0--0--0-----2--3--|--0--0--0--0--0--0--0--0--|


  E  E  E  E  E  E  E  E     E  E  E  E  E  E  E  E   
--------------------------|--------------------------|
--------------------------|--------------------------|
--------------------------|-----------------5--L-----|
--0--0--0--0--0--0--0--0--|--0--0--0--0--0--------0--|


  E  E  E  E  E  E  E  E     E  E  E  E  E  E  E  E   
--------------------------|--------------------------|
--------------------------|--------------------------|
--------------------------|-----------------------5--|
--0--0--0--0--0--0--0--3--|--L--3--3--3--3--3--3-----|


  E  E  E  E  E  E  E  E     E  E  E  E  E  E  E  E   
--------------------------|--------------------------|
--------------------------|--------------------------|
--L--5--5--5--5--5--5--5--|--------------------------|
--------------------------|--0--0--0--0--0--0--0--0--|


  E  E  E  E  E  E  E  E     E  E  E  E  E  E  E  E   
--------------------------|--------------------------|
--------------------------|--------------------------|
--------------------------|-----------------------5--|
--0--0--0--0--0--0--0--3--|--L--3--3--3--3--3--3-----|


  E  E  E  E  E  E  E  E     E  E  E  E  E  E  E  E   
--------------------------|--------------------------|
--------------------------|--------------------------|
--L--5--5--5--5--5--5--0--|--------------------------|
--------------------------|--0--0--0--0--0--0--0--0--|


  E  E  E  E  E  E  E  E     E  E  E  E  E  E  E  E   
--------------------------|--------------------------|
--------------------------|--------------------------|
--------------------------|--------------------------|
--0--0--0--0--0--0--0--7--|--L--7--7--7--7--7--7--7--|


  E  E  E  E  E  E  E  E     E  E  E  E  E  Q    E     E  E  E  E  E  E  E  E   
--------------------------|-------------------------|--------------------------|
--------------------------|-------------------------|--------------------------|
--------------------------|-------------------------|--------------------------|
--7--7--7--7--7--7--7--7--|--7--7--7--7--7--5----7--|--L--7--7--7--7--0--2--3--|


  E  E  E  E  E  E  E  E     E  E  E  E  E  E  E  E   
--------------------------|--------------------------|
--------------------------|--------------------------|
--------------------------|--------------------------|
--L--3--3--5--L--5--5--7--|--L--7--7--5--L--5--5--3--|


  E  E  E  E  E  E  E  E     E  E  H.              Q    E  Q.     E  E   
--------------------------|---------------------|-----------------------|
--------------------------|---------------------|-----------------------|
--------------------------|---------------------|--5-------7---------7--|
--L--3--3--3--3--3--3--3--|--3------------------|-----------------------|


  E  E  E  Q.     E  E     Q    E  Q.     E  E     E  E  E  Q.     E  E   
------------------------|-----------------------|------------------------|
------------------------|-----------------------|------------------------|
-----------5------5--5--|--5-------3------3--3--|--3--3-----5------5--5--|
--3--3------------------|-----------------------|------------------------|


  Q    E  Q.     E  E     E  E  E  Q.     E  E     Q    E  Q.     E  E   
-----------------------|------------------------|-----------------------|
-----------------------|------------------------|-----------------------|
--5-------7------------|-----------5------5--5--|--5-------3------3--3--|
--------------------3--|--3--3------------------|-----------------------|


  E  E  E  H        E     H           E  E  E  E  E  E  E  E   
-----------------------|-----------|--------------------------|
-----------------------|-----------|--------------------------|
--3--3-----2--------L--|--L--------|--L-----------------------|
-----------------------|-----------|-----0--2--0--3--0--5--3--|


  E  E  E  E  E  E  E  E     E  E  E  E  E  E  E  E   
--------------------------|--------------------------|
--------------------------|--------------------------|
--------------------------|--------------------------|
--0--0--0--0--0--0--0--0--|--0--0--0--0--0--0--0--0--|


  E  E  E  E  E  E  E  E     E  E  E  E  E  E  E  E   
--------------------------|--------------------------|
--------------------------|--------------------------|
-----------------5--L-----|-----------------0--------|
--0--0--0--0--0--------0--|--0--0--0--0--0-----2--3--|


  E  E  E  E  E  E  E  E     E  E  E  E  E  E  E  E   
--------------------------|--------------------------|
--------------------------|--------------------------|
--------------------------|--------------------------|
--0--0--0--0--0--0--0--0--|--0--0--0--0--0--0--0--0--|


  E  E  E  E  E  E  E  E     E  E  E  E  E  E  E  E   
--------------------------|--------------------------|
--------------------------|--------------------------|
-----------------5--L-----|--------------------------|
--0--0--0--0--0--------0--|--0--0--0--0--0--0--0--3--|


  E  E  E  E  E  E  E  E     E  E  E  E  E  E  E  E   
--------------------------|--------------------------|
--------------------------|--------------------------|
-----------------------5--|--L--5--5--5--5--5--5--5--|
--L--3--3--3--3--3--3-----|--------------------------|


  E  E  E  E  E  E  E  E     E  E  E  E  E  E  E  E   
--------------------------|--------------------------|
--------------------------|--------------------------|
--------------------------|--------------------------|
--0--0--0--0--0--0--0--0--|--0--0--0--0--0--0--0--3--|


  E  E  E  E  E  E  E  E     E  E  E  E  E  E  E  E   
--------------------------|--------------------------|
--------------------------|--------------------------|
-----------------------5--|--L--5--5--5--5--5--5--0--|
--L--3--3--3--3--3--3-----|--------------------------|


  E  E  E  E  E  E  E  E     E  E  E  E  E  E  E  E   
--------------------------|--------------------------|
--------------------------|--------------------------|
--------------------------|--------------------------|
--0--0--0--0--0--0--0--0--|--0--0--0--0--0--0--0--7--|


  E  E  E  E  E  E  E  E     E  E  E  E  E  E  E  E     E  E  E  E  E  Q    E   
--------------------------|--------------------------|-------------------------|
--------------------------|--------------------------|-------------------------|
--------------------------|--------------------------|-------------------------|
--L--7--7--7--7--7--7--7--|--7--7--7--7--7--7--7--7--|--7--7--7--7--7--5----7--|


  E  E  E  E  E  E  E  E     E  E  E  E  E  E  E  E   
--------------------------|--------------------------|
--------------------------|--------------------------|
--------------------------|--------------------------|
--L--7--7--7--7--7--7--3--|--L--3--3--5--L--5--5--7--|


  E  E  E  E  E  E  E  E     E  E  E  E  E  E  E  E     E  E  H.            
--------------------------|--------------------------|---------------------|
--------------------------|--------------------------|---------------------|
--------------------------|--------------------------|---------------------|
--L--7--7--5--L--5--5--3--|--L--3--3--3--3--3--3--3--|--3------------------|


  Q    E  Q.     E  E     E  E  E  Q.     E  E     Q    E  Q.     E  E   
-----------------------|------------------------|-----------------------|
-----------------------|------------------------|-----------------------|
--5-------7------------|-----------5------5--5--|--5-------3------3--3--|
--------------------3--|--3--3------------------|-----------------------|


  E  E  E  Q.     E  E     Q    E  Q.     E  E     E  E  E  Q.     E  E   
------------------------|-----------------------|------------------------|
------------------------|-----------------------|------------------------|
--3--3-----5------5--5--|--5-------7------------|-----------5------5--5--|
------------------------|--------------------3--|--3--3------------------|


  Q    E  Q.     E  E     E  E  E  H        E     H         
-----------------------|-----------------------|-----------|
-----------------------|-----------------------|-----------|
--5-------3------3--3--|--3--3-----2--------L--|--L--------|
-----------------------|-----------------------|-----------|


  E  E  E  E  E  E  E  E     E  E  E  E  E  E  E  E   
--------------------------|--------------------------|
--------------------------|--------------------------|
--L--------------------4--|--L--4--4--4--4--4--4--4--|
-----0--2--0--3--0--5-----|--------------------------|


  E  E  E  E  E  E  E  E     E  E  E  Q    E  E  E     E  E  E  E  E  E  E  E   
--------------------------|-------------------------|--------------------------|
--------------------------|-------------------------|--------------------------|
--4--4--4--4--4--4--4-----|-----------2----2--2--4--|--L--4--4--4--4--4--4--4--|
-----------------------0--|--L--0--0----------------|--------------------------|


  E  E  E  E  E  E  E  E     E  E  E  E  E  E  E  E     E  E  E  Q    E  E  E   
--------------------------|--------------------------|-------------------------|
--------------------------|--------------------------|-------------------------|
--L--4--4--4--4--4--4--4--|--4--4--4--4--4--4--4-----|-----------2----2--2--4--|
--------------------------|-----------------------0--|--L--0--0----------------|


  E  E  E  E  E  E  E  E     E  E  E  E  E  E  E  E   
--------------------------|--------------------------|
--------------------------|--------------------------|
--L--4--4--4--4--4--4--4--|--L--4--4--4--4--4--4--4--|
--------------------------|--------------------------|


  E  E  E  E  E  E  E  E     E  E  E  Q    E  E  E     E  E  E  E  E  E  E  E   
--------------------------|-------------------------|--------------------------|
--------------------------|-------------------------|--------------------------|
--4--4--4--4--4--4--4-----|-----------2----2--2--4--|--L--4--4--4--4--4--4--4--|
-----------------------0--|--L--0--0----------------|--------------------------|


  E  E  E  E  E  E  E  E     E  E  E  E  E  E  E  E     Q    E  Q.     E  E   
--------------------------|--------------------------|-----------------------|
--------------------------|--------------------------|-----------------------|
--L--4--4--4--4--4--4--4--|--4--4--4--4--4--4--4-----|--------------------2--|
--------------------------|-----------------------0--|--L-------2------------|


  Q    E  Q.     E  E     E  E  E  E  E  E  E  E     E  E  E  E  E  E  E  E   
-----------------------|--------------------------|--------------------------|
-----------------------|--------------------------|--------------------------|
--L-------7---------4--|--L--4--4--4--4--4--4--4--|--4--4--4--4--4--4--4-----|
-----------------------|--------------------------|-----------------------2--|


  E  E  E  E  E  E  E  E     E  E  E  E  E  E  E  E     E  E  E  Q    E  E  E   
--------------------------|--------------------------|-------------------------|
--------------------------|--------------------------|-------------------------|
--------------------------|--------------------------|-------------------------|
--L--2--2--2--2--2--2--2--|--2--2--2--2--2--2--2--5--|--L--5-----0----0-----2--|


  E  E  E  E  E  E  E  E     E  E  E  E  E  E  E  E   
--------------------------|--------------------------|
--------------------------|--------------------------|
--------------------------|--------------------------|
--L--2--2--2--2--2--2--2--|--L--2--2--2--2--2--2--2--|


  E  E  E  E  E  E  E  E     E  E  E  Q    E  E  E     E  E  E  E  E  E  E  E   
--------------------------|-------------------------|--------------------------|
--------------------------|-------------------------|--------------------------|
--------------------------|-------------------------|--------------------------|
--2--2--2--2--2--2--2--5--|--L--5-----0----0-----2--|--L--2--2--2--2--2--2--7--|


  E  E  E  E  E  E  E  E     E  E  E  E  E  E  E  E     E  E  E  E  E  Q    E   
--------------------------|--------------------------|-------------------------|
--------------------------|--------------------------|-------------------------|
--------------------------|--------------------------|-------------------------|
--L--7--7--7--7--7--7--7--|--7--7--7--7--7--7--7--7--|--7--7--7--7--7--5----7--|


  E  E  E  E  E  E  E  E     E  E  E  E  E  E  E  E   
--------------------------|--------------------------|
--------------------------|--------------------------|
--------------------------|--------------------------|
--L--7--7--7--7--7--7--3--|--L--3--3--5--L--5--5--7--|


  E  E  E  E  E  E  E  E     E  E  E  E  E  E  E  E     E  E  H.            
--------------------------|--------------------------|---------------------|
--------------------------|--------------------------|---------------------|
--------------------------|--------------------------|---------------------|
--L--7--7--5--L--5--5--3--|--L--3--3--3--3--3--3--3--|--3------------------|


  Q    E  Q.     E  E     E  E  E  Q.     E  E     Q    E  Q.     E  E   
-----------------------|------------------------|-----------------------|
-----------------------|------------------------|-----------------------|
--5-------7------------|-----------5------5--5--|--5-------3------3--3--|
--------------------3--|--3--3------------------|-----------------------|


  E  E  E  Q.     E  E     Q    E  Q.     E  E     E  E  E  Q.     E  E   
------------------------|-----------------------|------------------------|
------------------------|-----------------------|------------------------|
--3--3-----5------5--5--|--5-------7------------|-----------5------5--5--|
------------------------|--------------------3--|--3--3------------------|


  Q    E  Q.     E  E     E  E  E  H        E     H         
-----------------------|-----------------------|-----------|
-----------------------|-----------------------|-----------|
--5-------3------3--3--|--3--3-----2--------L--|--L--------|
-----------------------|-----------------------|-----------|


  E  E  E  E  E  E  E  E     E  E  H.             
--------------------------|---------------------||
--------------------------|---------------------||
--L-----------------------|---------------------||
-----0--2--0--3--0--5--3--|--0------------------||




Duration Legend
---------------
W - whole
H - half
Q - quarter
E - 8th
S - 16th
T - 32nd
X - 64th
. - note dotted
|-n-|  - n-tuplets


Tablature Legend
----------------
L - tied note
x - dead note
g - grace note
(n) - ghost note
> - accentuded note
NH - natural harmonic
AH - artificial harmonic
TH - tapped harmonic
SH - semi harmonic
PH - pitch harmonic
h - hammer on
p - pull off
b - bend
br - bendRelease
pb - preBend
pbr - preBendRelease
brb - bendReleaseBend
\n/ - tremolo bar dip
\n - tremolo bar dive
-/n - tremolo bar Release up
/n\ - tremolo bar inverted dip
/n - tremolo bar return
-\n - tremolo bar Release down
S - shift slide
s - legato slide
/ -  slide into from below or out of upwards
\ -  slide into from above or out of downwards
~ - vibrato
W - wide vibrato
tr - trill
TP - tremolo picking
T - tapping
S - slap
P - pop
< - fade in
^ - brush up
v - brush down

            
            
Suggest correction
Creating personal tab
Creating personal tab
You can edit any tab online and save it as your Personal.

You can edit, replace or remove any tab part or add personal notes – all changes will be seen only by you.

Personal tabs can be accessed anytime from any device, even offline.
Learn more »
Give kudos to tab author, rate the tab!
1 2 3 4 5
comments
print report bad tab
guest
You may want to rate the tab now too:
select rating
Wanna post a correction for this tab? Suggest correction