Oops, an error
Loading. Please wait.

Midnight Highway bass

version 1
version 1

Whole song

Interactive

by Accept
472 views 1 this week
no commentswrite comment
1 2 3 4 5
3 more votes to show rating
add to favorites
×
Save as Personal and add changes to this tab that will be seen only by you. Learn more ›
×
You can save this tab as Personal to edit and correct it or add notes. All changes will be seen only by you. Learn more »
launch autoscroll
font size
0
reset
guitar tuner
edit
Autoscroll
slow
fast
+/-
esc
set tempo
stop
                               Midnight Highway                                 


                                                                          Accept
Bass
overkillz_msb@hotmail.com



     H           W                   W                   W                 
G||-----------|-------------------|-------------------|-------------------|
D||-----------|-------------------|-------------------|-------------------|
A||-----------|--5----------------|--3----------------|--5----------------|
E||-----------|-------------------|-------------------|-------------------|


  Q.     Q.     Q       W                   W                 
---------------------|-------------------|-------------------|
---------------------|-------------------|-------------------|
---------------------|--5----------------|--3----------------|
--0------2------3----|-------------------|-------------------|


  E  E  E  E  E  E  E  E     E  E  E  E  E  E  E  E     E  E  Q    E  E  E  E   
--------------------------|--------------------------|-------------------------|
--------------------------|--------------------------|-------------------------|
--5--5--5--5--5--5--5--5--|--5--5--5--5--5--5--5--5--|-------------------2--3--|
--------------------------|--------------------------|--3-----3----3--5--------|


  E  E  E  E  E  E  E  E     E  E  H.              Q    E  E  Q    Q      
--------------------------|---------------------|------------------------|
--------------------------|---------------------|------------------------|
--L--3--2-----3-----2-----|--5-----5------------|--7-------5--3----5\----|
--------------------------|---------------------|------------------------|


  E  E  Q    E  E  E  E     E  E  E  E  E  E  E  E     E  E  H.            
-------------------------|--------------------------|---------------------|
-------------------------|--------------------------|---------------------|
-------------------2--3--|--L--3--2-----3-----2-----|--5-----5------------|
--3-----3----3--5--------|--------------------------|---------------------|


  Q    E  E  Q    Q        Q    Q.     E  E  E     Q     H        E  E   
------------------------|-----------------------|-----------------------|
------------------------|-----------------------|-----------------------|
--3-------5--7----------|--------------3-----5--|--5\----------------7--|
------------------7\----|--3--------------------|-----------------------|


  Q     E  E  Q    E  E     Q     Q.      E  Q        Q    Q.     E  E  E   
-------------------------|-------------------------|-----------------------|
-------------------------|-------------------------|-----------------------|
--7\-------3--3-------5--|--5\-----------10--------|--------------3-----5--|
-------------------------|-------------------7\----|--3--------------------|


  Q     Q.     E  E  E     Q     E  E  Q    E  E     Q     E.  S E  E  E  E   
------------------------|-------------------------|--------------------------|
------------------------|-------------------------|--------------------------|
--5\-----------5-----7--|--7\-------3--3-------5--|--5\--------5-5--3--2-----|
------------------------|-------------------------|-----------------------5--|


  E  E  E  E  E  E  E  E     E  E  E  E  E  E  E  E   
--------------------------|--------------------------|
--------------------------|--------------------------|
-----------------------5--|--5--5--5--5--5--5--5--7--|
--3--3--3--3--3--3--3-----|--------------------------|


  E  E  E  E  E  E  E  E     E  E  E  E  E  E  E  E   
--------------------------|--------------------------|
--------------------------|--------------------------|
--7--7--7--3--3--3--3--5--|--5--5--5--5--5--3--2-----|
--------------------------|-----------------------5--|


  E  E  E  E  E  E  E  E     E  E  E  E  E  E  E  E   
--------------------------|--------------------------|
--------------------------|--------------------------|
-----------------------5--|--5--5--5--5--5--5--5--7--|
--3--3--3--3--3--3--3-----|--------------------------|


  E  E  E  E  E  E  E  E     E  E  E  E  E  E  E  E   
--------------------------|--------------------------|
--------------------------|--------------------------|
--7--7--7--3--3--3--3--5--|--5-----------------------|
--------------------------|-----0--2--3--5--3--2--0--|


  E  E  E  E  E  E  E  E     E  E  E  E  E  E  E  E   
--------------------------|--------------------------|
--------------------------|--------------------------|
--5--5--5--5--5--5--5--5--|--3--3--3--3--3--3--3--3--|
--------------------------|--------------------------|


  E  E  E  E  E  E  E  E     E  E  E  E  E  E  E  E     Q.     Q.     Q      
--------------------------|--------------------------|----------------------|
--------------------------|--------------------------|----------------------|
--5--5--5--5--5--5--5--5--|--3--3--3--3--3--3--3--3--|--7------7------7\----|
--------------------------|--------------------------|----------------------|


  Q.     Q.     Q       E  E  E  E  E  E  E  E     E  E  E  E  E  E  E  E   
---------------------|--------------------------|--------------------------|
---------------------|--------------------------|--------------------------|
--3------3------3----|--5--5--5--5--5--5--5--5--|--5--5--5--5--5--5--5--5--|
---------------------|--------------------------|--------------------------|


  E  E  Q    E  E  E  E     E  E  Q    Q    Q       E  E  H.            
-------------------------|-----------------------|---------------------|
-------------------------|-----------------------|---------------------|
-------------------2--3--|--L--3--2----3----2----|--5-----5------------|
--3-----3----3--5--------|-----------------------|---------------------|


  Q    E  E  Q      Q        E  E  Q    E  E  E  E     E  E  Q    Q    Q     
--------------------------|-------------------------|-----------------------|
--------------------------|-------------------------|-----------------------|
--7-------5--3/----10\----|-------------------2--3--|--L--3--2----3----2----|
--------------------------|--3-----3----3--5--------|-----------------------|


  E  E  H.              Q    E  E  Q    Q        Q    Q.     E  E  E   
---------------------|------------------------|-----------------------|
---------------------|------------------------|-----------------------|
--5-----5------------|--3-------5--7----------|--------------3-----5--|
---------------------|------------------7\----|--3--------------------|


  Q       Q     E  E  E  E     Q     E  E  E  E  E  E   
----------------------------|--------------------------|
----------------------------|--------------------------|
--5/----(17)-------5-----7--|--7\-------3--3--3-----5--|
----------------------------|--------------------------|


  Q     Q.     S S E  E     Q    Q.     E  E  E     Q     Q.     E  E  E   
-------------------------|-----------------------|------------------------|
-------------------------|-----------------------|------------------------|
--5\---------------------|--------------3-----5--|--5\-----------5-----7--|
---------------0-0-7--5--|--3--------------------|------------------------|


  Q     E  E  Q    E  E     Q     E  E  E  E  E  E     E  E  E  E  E  E  E  E   
-------------------------|--------------------------|--------------------------|
-------------------------|--------------------------|--------------------------|
--7\-------3--3-------5--|--5\-------------0--2--3--|-----------------------5--|
-------------------------|--------0--2--3-----------|--3--3--3--3--3--3--3-----|


  E  E  E  E  E  E  E  E     E  E  E  E  E  E  E  E   
--------------------------|--------------------------|
--------------------------|--------------------------|
--5--5--5--5--5--5--5--7--|--7--7--7--3--3--3--3--5--|
--------------------------|--------------------------|


  E  E  E  E  E  E  E  E     E  E  E  E  E  E  E  E   
--------------------------|--------------------------|
--------------------------|--------------------------|
--5--5--5--5--5--5--5--5--|-----------------------5--|
--------------------------|--3--3--3--3--3--3--3-----|


  E  E  E  E  E  E  E  E     E  E  E  E  E  E  E  E   
--------------------------|--------------------------|
--------------------------|--------------------------|
--5--5--5--5--5--5--5--7--|--7--7--7--3--3--3--3--5--|
--------------------------|--------------------------|


  E  E  E  E  E  E  E  E     E  E  E  E  E  E  E  E   
--------------------------|--------------------------|
--------------------------|--------------------------|
--5-----------------------|--5--5--5--5--5--5--5--5--|
-----0--2--3--5--3--2--0--|--------------------------|


  E  E  E  E  E  E  E  E     E  E  E  E  E  E  E  E   
--------------------------|--------------------------|
--------------------------|--------------------------|
--3--3--3--3--3--3--3--3--|--5--5--5--5--5--5--5--5--|
--------------------------|--------------------------|


  E  E  E  E  E  E  E  E     Q.     Q.     Q       Q.     Q.     Q     
--------------------------|---------------------|---------------------|
--------------------------|---------------------|---------------------|
--3--3--3--3--3--3--3--3--|--7------7------7----|--3------3------3----|
--------------------------|---------------------|---------------------|


  E  E  E  E  E  E  E  E     E  E  E  E  E  E  E  E     E  E  Q    E  E  E  E   
--------------------------|--------------------------|-------------------------|
--------------------------|--------------------------|-------------------------|
--5--5--5--5--5--5--5--5--|--5--5--5--5--5--5--5--5--|-------------------2--3--|
--------------------------|--------------------------|--3-----3----3--5--------|


  E  E  Q    Q    Q       E  E  H.              Q    E  E  Q      Q      
-----------------------|---------------------|--------------------------|
-----------------------|---------------------|--------------------------|
--L--3--2----3----2----|--5-----5------------|--7-------5--3/----10\----|
-----------------------|---------------------|--------------------------|


  E  E  Q    E  E  E  E     E  E  Q    Q    Q       E  E  H.            
-------------------------|-----------------------|---------------------|
-------------------------|-----------------------|---------------------|
-------------------2--3--|--L--3--2----3----2----|--5-----5------------|
--3-----3----3--5--------|-----------------------|---------------------|


  Q    E  E  Q    Q        E  Q    E  Q    E  E     H.           E  E   
------------------------|------------------------|---------------------|
------------------------|------------------------|---------------------|
--3-------5--7----------|--3-------5-------------|------------------3--|
------------------7\----|------------------0--0--|---------------------|


  Q    Q    E  E  E  E     Q    H.              E  Q    E  Q    E  E   
------------------------|--------------------|------------------------|
------------------------|--------------------|------------------------|
--L----2-------------5--|--L-----------------|--3-------5-------------|
------------5--3--2-----|--------------------|------------------0--0--|


  W                   Q    Q    Q    Q       W                 
-------------------|----------------------|-------------------|
-------------------|----------------------|-------------------|
-------------------|--3----2--------------|--5----------------|
-------------------|------------5----3----|-------------------|


  W                   W                   Q.     Q.     Q     
-------------------|-------------------|---------------------|
-------------------|-------------------|---------------------|
--3----------------|--5----------------|---------------------|
-------------------|-------------------|--0------2------3----|


  W                   W                   E  E  E  E  E  E  E  E   
-------------------|-------------------|--------------------------|
-------------------|-------------------|--------------------------|
--5----------------|--3----------------|--5--5--5--5--5--5--5--5--|
-------------------|-------------------|--------------------------|


  E  E  E  E  E    E   Q        Q    Q    E  E  E  E     E  E  Q    Q    Q     
-----------------------------|------------------------|-----------------------|
-----------------------------|------------------------|-----------------------|
--5--5--5--5--5--/10--10\----|------------------2--3--|--L--3--2----3----2----|
-----------------------------|--3----3----3--3--------|-----------------------|


  Q    H.              Q    E  E  Q      Q        Q    Q    E  E  E  E   
--------------------|--------------------------|------------------------|
--------------------|--------------------------|------------------------|
--5----5------------|--7-------5--3/----10\----|------------------2--3--|
--------------------|--------------------------|--3----3----3--3--------|


  E  E  Q    Q    Q       Q    H.              Q    E  E  Q    Q      
-----------------------|--------------------|------------------------|
-----------------------|--------------------|------------------------|
--L--3--2----3----2----|--5----5------------|--3-------5--7----------|
-----------------------|--------------------|------------------7\----|


  Q    Q    E  E  E  E     E  E  Q    Q    Q       Q    H.            
------------------------|-----------------------|--------------------|
------------------------|-----------------------|--------------------|
------------------2--3--|--L--3--2----3----2----|--5----5------------|
--3----3----3--3--------|-----------------------|--------------------|


  Q    E  E  Q    Q        Q    Q    E  E  E  E     E  E  Q    Q    Q     
------------------------|------------------------|-----------------------|
------------------------|------------------------|-----------------------|
--7-------5--3----------|------------------2--3--|--L--3--2----3----2----|
------------------7\----|--3----3----3--3--------|-----------------------|


  Q    H.              Q    E  E  H           Q    E  E  H         
--------------------|----------------------|----------------------|
--------------------|----------------------|----------------------|
--5----5------------|--3-------5--7--------|--3-------5--7--------|
--------------------|----------------------|----------------------|


  W                   W                   W                 
-------------------|-------------------|-------------------|
-------------------|-------------------|-------------------|
--5----------------|--3----------------|--5----------------|
-------------------|-------------------|-------------------|


  Q.     Q.     Q       W                   W                 
---------------------|-------------------|-------------------|
---------------------|-------------------|-------------------|
---------------------|--5----------------|--3----------------|
--0------2------3----|-------------------|-------------------|


  W                   Q.     Q.      Q       W                 
-------------------|----------------------|-------------------|
-------------------|----------------------|-------------------|
--5----------------|--7------9------10----|--5----------------|
-------------------|----------------------|-------------------|


  W                   W                   Q.     Q.     Q     
-------------------|-------------------|---------------------|
-------------------|-------------------|---------------------|
--3----------------|--5----------------|---------------------|
-------------------|-------------------|--0------2------3----|


  W                   W                   W                 
-------------------|-------------------|-------------------|
-------------------|-------------------|-------------------|
--5----------------|--3----------------|--5----------------|
-------------------|-------------------|-------------------|


  Q.     Q.     Q      
---------------------||
---------------------||
---------------------||
--0------2------3----||




Duration Legend
---------------
W - whole
H - half
Q - quarter
E - 8th
S - 16th
T - 32nd
X - 64th
. - note dotted
|-n-|  - n-tuplets


Tablature Legend
----------------
L - tied note
x - dead note
g - grace note
(n) - ghost note
> - accentuded note
NH - natural harmonic
AH - artificial harmonic
TH - tapped harmonic
SH - semi harmonic
PH - pitch harmonic
h - hammer on
p - pull off
b - bend
br - bendRelease
pb - preBend
pbr - preBendRelease
brb - bendReleaseBend
\n/ - tremolo bar dip
\n - tremolo bar dive
-/n - tremolo bar Release up
/n\ - tremolo bar inverted dip
/n - tremolo bar return
-\n - tremolo bar Release down
S - shift slide
s - legato slide
/ -  slide into from below or out of upwards
\ -  slide into from above or out of downwards
~ - vibrato
W - wide vibrato
tr - trill
TP - tremolo picking
T - tapping
S - slap
P - pop
< - fade in
^ - brush up
v - brush down

            
            
Suggest correction
Creating personal tab
Creating personal tab
You can edit any tab online and save it as your Personal.

You can edit, replace or remove any tab part or add personal notes – all changes will be seen only by you.

Personal tabs can be accessed anytime from any device, even offline.
Learn more »
Give kudos to tab author, rate the tab!
1 2 3 4 5
comments
print report bad tab
guest
You may want to rate the tab now too:
select rating
Wanna post a correction for this tab? Suggest correction