Oops, an error
Loading. Please wait.
We have an official Back In Black tab made by UG professional guitarists. Check out the tab »
×

Back In Black ukulele

version 1
version 1

Whole song

  • This is a ukulele version of the rhythm guitar including all the riffs.
by AC/DC
2,935 views 129 this week
1 commentread comment
1 2 3 4 5
x 3
add to favorites
×
Save as Personal and add changes to this tab that will be seen only by you. Learn more ›
×
You can save this tab as Personal to edit and correct it or add notes. All changes will be seen only by you. Learn more »
launch autoscroll
font size
0
reset
transpose
0
reset
display chords
guitar tuner
backing track
0:00
0:00
edit
Autoscroll
slow
fast
+/-
esc
set tempo
stop
Author
Difficulty
intermediate
About this tab version
This is a ukulele version of the rhythm guitar including all the riffs. Was this info helpful? Yes No
Strumming
There is no strumming pattern for this song yet. and get +5 IQ
Song order:
Intro
Intro/Verse x 4
Chorus
Intro/Verse x2
Chorus
Solo x 4
Chorus
Bridge
Chorus
Outro


Legend
() - tied note
x - dead note
p - pull off
b - bend
. - staccato

Intro

A |--x--x--x--x----|--x--x----------||
E |--x--x--x--x----|--x--x----------||
C |--x--x--x--x----|--x--x----------||
G |--x--x--x--x----|--x--x----------||

Intro/Verse
  A                 G                       D
|-0-----------------2--2--2-----------------0--0----|
|-0-----------------3--3--3-----------------2--2----|
|-1.----------------2--2--2.----------------2--2----|
|-2-----------------0--0--0-----------------2--2----|


--0--------------------------3p-0-------------------|
--2.-------------------------------3p-0-------------|
--2--------------------------------------2b-2p-0----|
--2-------------------------------------------------|

  A                 G                       D
--0-----------------2--2--2-----------------0--0----|
--0-----------------3--3--3-----------------2--2----|
--1.----------------2--2--2.----------------2--2----|
--2-----------------0--0--0-----------------2--2----|


--0------------------------------------------------||
--2.----------0--------0--------0--------0---------||
--2--------------1--------2--------3-(3)----4------||
--2------------------------------------------------||

Chorus
        D        A        E        D        E
--------0----(0)-0--------2--------0-(0)----2-------|
--------2----(2)-0--------4--------2-(2)----4.------|
--------2----(2)-1--------4--------2-(2)----4-------|
--------2----(2)-2-----------------2-(2)------------|

        D        A        E        D        E
--------0----(0)-0--------2--------0-(0)----2-------|
--------2----(2)-0--------4--------2-(2)----4-------|
--------2----(2)-1--------4--------2-(2)----4-------|
--------2----(2)-2-----------------2-(2)------------|

        C        G        D                 D
-(2)----3----(3)-2--------0-----------------0-------|
-(4)----0----(0)-3--------2-----------------2-------|
-(4)----0----(0)-2--------2--------0-(0)----2-------|
--------0----(0)-0--------2-----------------2-------|

        C        G        D                 D
-(0)----3----(3)-2--------0-----------------0-------|
-(2)----0----(0)-3--------2-----------------2-------|
-(2)----0----(0)-2--------2--------0-(0)----2-------|
-(2)----0----(0)-0--------2-----------------2-------|

        D        A        E        D        E
--------0----(0)-0--------2--------0-(0)----2-------|
--------2----(2)-0--------4--------2-(2)----4.------|
--------2----(2)-1--------4--------2-(2)----4-------|
--------2----(2)-2-----------------2-(2)------------|

        D        A        E        D        E
--------0----(0)-0--------2--------0-(0)----2-------|
--------2----(2)-0--------4--------2-(2)----4-------|
--------2----(2)-1--------4--------2-(2)----4-------|
--------2----(2)-2-----------------2-(2)------------|

  C   
--3--------3-(3)----3----(3)-3--3--3--3-----3-------|
--0--------0-)0)----0----(0)-0--0--0--0-----0-------|
--0--------0-(0)----0----(0)-0--0--0--0-----0-------|
--0--------0-(0)----0----(0)-0--0--0--0-----0-------|

  G
--2--------2-(2)----2----(2)------------------------||
--3--------3-(3)----3----(3)------------------------||
--2--------2-(2)----2----(2)------------------------||
--0--------0-(0)----0----(0)------------------------||

Solo
  A                 G                       D
--0-----------------2--2--2-----------------0--0----|
--0-----------------3--3--3-----------------2--2----|
--1.----------------2--2--2.----------------2--2----|
--2-----------------0--0--0-----------------2--2----|

  D                 A
--0-----------------0--0--0-----0--0--0-----0--0----|
--2.----------------0--0--0-----0--0--0-----0--0----|
--2-----------------1--1--1-----1--1--1-----1--1----|
--2-----------------2--2--2-----2--2--2-----2--2----|

  A                 G                       D
--0-----------------2--2--2-----------------0--0----|
--0-----------------3--3--3-----------------2--2----|
--1.----------------2--2--2.----------------2--2----|
--2-----------------0--0--0-----------------2--2----|

D                                  A        D
--0-----------------0--0--0--------0-(0)----0------||
--2.----------------2--2--2--------0-(0)----2------||
--2-----------------2--2--2--------1-(1)----2------||
--2-----------------2--2--2--------2-(2)----2------||

Bridge

----------------------------------------------------|
-----3p-2--0--2--------0--------0--------0----------|
-----------------0--------2--------3-(3)----4-------|
----------------------------------------------------|


----------------------------------------------------|
-----3p-2--0--2--------0--------0--------0----------|
-----------------0--------2--------3-(3)----4-------|
----------------------------------------------------|

----------------------------------------------------|
-----3p-2--0--2--------0--------0--------0----------|
-----------------0--------2--------3-(3)----4-------|
----------------------------------------------------|

----------------------------------------------------|
-----3p-2--0--2--------0--------0--------0----------|
-----------------0--------2--------3-(3)----4-------|
----------------------------------------------------|


-----3p-2--0--2--------0--------0--------0----------|
-----------------1--------3--------4-(4)----5-------|
--2-------------------------------------------------|
----------------------------------------------------|


-----3p-2--0--2--------0--------0--------0----------|
-----------------1--------3--------4-(4)----5-------|
--2-------------------------------------------------|
----------------------------------------------------|


----------------------------------------------------|
-----3p-2--0--2--------0--------0--------0----------|
-----------------0--------2--------3-(3)----4-------|
----------------------------------------------------|


----------------------------------------------------|
-----3p-2--0--2--------0--------0--------0----------|
-----------------0--------2--------3-(3)----4-------|
----------------------------------------------------|

Outro
   D
|--0----|-(0)---|
|--2----|-(2)---|
|--2----|-(2)---|
|--2----|-(2)---|

  A                 G                       D
--0-----------------2--2--2-----------------0--0----|
--0-----------------3--3--3-----------------2--2----|
--1.----------------2--2--2.----------------2--2----|
--2-----------------0--0--0-----------------2--2----|

  D                 A
--0-----------------0--0--0-----0--0--0-----0--0----|
--2.----------------0--0--0-----0--0--0-----0--0----|
--2-----------------1--1--1-----1--1--1-----1--1----|
--2-----------------2--2--2-----2--2--2-----2--2----|

  A                 G                       D
--0-----------------2--2--2-----------------0--0----|
--0-----------------3--3--3-----------------2--2----|
--1.----------------2--2--2.----------------2--2----|
--2-----------------0--0--0-----------------2--2----|

  D                 D              A
--0-----------------0--0--0--------0-(0)----0------||
--2.----------------2--2--2--------0-(0)----2------||
--2-----------------2--2--2--------1-(1)----2------||
--2-----------------2--2--2--------2-(2)----2------||



            
            
Suggest correction
Creating personal tab
Creating personal tab
You can edit any tab online and save it as your Personal.

You can edit, replace or remove any tab part or add personal notes – all changes will be seen only by you.

Personal tabs can be accessed anytime from any device, even offline.
Learn more »
Give kudos to tab author, rate the tab!
1 2 3 4 5
comments
print report bad tab
1 comment total.
0 reply
dante.zucconi 16 Aug 31, 2017 03:54 PM

great tab, very impressive 🎼

guest
You may want to rate the tab now too:
select rating
Wanna post a correction for this tab? Suggest correction