Oops, an error
Loading. Please wait.

Beating Around The Bush bass

version 1
version 1

Whole song

Interactive

by AC/DC
127 views 12 this week
no commentswrite comment
1 2 3 4 5
3 more votes to show rating
add to favorites
×
Save as Personal and add changes to this tab that will be seen only by you. Learn more ›
×
You can save this tab as Personal to edit and correct it or add notes. All changes will be seen only by you. Learn more »
launch autoscroll
font size
0
reset
guitar tuner
backing track
0:00
0:00
edit
Autoscroll
slow
fast
+/-
esc
set tempo
stop
[Intro: come in at :18]
G|-----------------|-----------------|-----------------|-----------------|
D|---------0-------|-----------------|---------0-------|-----------------|
A|-----0-------0---|-----------------|-----0-------0---|-----------------|
E|-0---------------|-2---0---0---0---|-0---------------|-2---0---0---0---|

G|-----------------|-----------------|-----------------|-----------------|
D|---------0-------|-----------------|---------0-------|-----------------|
A|-----0-------0---|-----------------|-----0-------0---|-----------------|
E|-0---------------|-2---0---0---0---|-0---------------|-2---0---0---0---|

[Verse]
G|-----------------|-----------------|-----------------|-----------------| (x8)
D|-----------------|-----------------|-----------------|-----------------|
A|-----------------|---------------5-|-----0---0-------|-----------------|
E|-0---r-----------|-----------------|-------------3-0-|-3-0-0-0-----x-x-|

[Chorus]
G|-----------------|-----------------|-----------------|-----------------| 
D|-----------------|-----------------|-0-----0-----0---|-(0)-------------|
A|-----------------|-----------------|-----------------|-----------------|
E|-0-----0-----0---|-(0)-------------|-----------------|-----------------|

G|-----------------|-----------------|-----------------|-----------------| 
D|-----------------|-----------------|-----------------|-----------------|
A|-0-----0-----0---|-(0)-------------|-----------------|-----------------|
E|-----------------|-----------------|-0---r-----------|-----------------|

G|-----------------|-----------------| 
D|-----------------|-----------------|
A|-----------------|-----------------|
E|-----------------|-----------------|

[Verse]
G|-----------------|-----------------|-----------------|-----------------| (x8)
D|-----------------|-----------------|-----------------|-----------------|
A|-----------------|---------------5-|-----0---0-------|-----------------|
E|-0---r-----------|-----------------|-------------3-0-|-3-0-0-0-----x-x-|

[Chorus]
G|-----------------|-----------------|-----------------|-----------------| 
D|-----------------|-----------------|-0-----0-----0---|-(0)-------------|
A|-----------------|-----------------|-----------------|-----------------|
E|-0-----0-----0---|-(0)-------------|-----------------|-----------------|

G|-----------------|-----------------|-----------------|-----------------| 
D|-----------------|-----------------|-----------------|-----------------|
A|-0-----0-----0---|-(0)-------------|-----------------|-----------------|
E|-----------------|-----------------|-0---r-----------|-----------------|

G|-----------------|-----------------| 
D|-----------------|-----------------|
A|-----------------|---------------0-|
E|-----------------|-----------------|

[Solo]
G|-----------------|-----------------|-----------------|-----------------| 
D|-----------------|-----------------|-----------------|-----------------|
A|-----0---0---0---|-0---0---5-----0-|-----0---0---0---|-0---0---0---0-0-|
E|-----------------|-----------------|-----------------|-----------------|

G|-----------------|-----------------|-----------------|-----------------| 
D|-----------------|-----------------|-----------------|-----------------|
A|-----0---0---0---|-0---0---5-----0-|-----0---0---0---|-0---0---0---0-2-|
E|-----------------|-----------------|-----------------|-----------------|

G|-----------------|-----------------|-----------------|-----------------| 
D|-----------------|---------2-------|-----------------|-----------------|
A|-----2---2---2---|-2---2---------2-|-----2---2---2---|-2---2---2---2-2-|
E|-----------------|-----------------|-----------------|-----------------|

G|-----------------|-----------------|-----------------|-----------------| 
D|-----------------|---------2-------|-----------------|-----------------|
A|-----2---2---2---|-2---2---------2-|-----2---2---2---|-2---2---2---2---|
E|-----------------|-----------------|-----------------|-----------------|

G|-----------------|-----------------|-----------------|-----------------| 
D|-----------------|-----------------|-----------------|-----------------|
A|-2---2---2---2---|-2---2---2---2---|-2---2---2---2---|-2---2---2---2---|
E|-----------------|-----------------|-----------------|-----------------|

G|-----------------|-----------------|-----------------|-----------------| 
D|-----------------|-----------------|-----------------|-----------------|
A|-2---2---2---2---|-2---2---2---2---|-5---5---5---5---|-5---5---5---5---|
E|-----------------|-----------------|-----------------|-----------------|

G|-----------------|-----------------|-----------------|-----------------| 
D|-----------------|-----------------|-----------------|-----------------|
A|-----------------|-----------------|-----------------|-----------------|
E|-0---------------|-(0)-------------|-(0)-------------|-(0)-------------|

[Verse]
G|-----------------|-----------------|-----------------|-----------------| (x8)
D|-----------------|-----------------|-----------------|-----------------|
A|-----------------|---------------5-|-----0---0-------|-----------------|
E|-0---r-----------|-----------------|-------------3-0-|-3-0-0-0-----x-x-|

[Chorus]
G|-----------------|-----------------|-----------------|-----------------| 
D|-----------------|-----------------|-0-----0-----0---|-(0)-------------|
A|-----------------|-----------------|-----------------|-----------------|
E|-0-----0-----0---|-(0)-------------|-----------------|-----------------|

G|-----------------|-----------------|-----------------|-----------------| 
D|-----------------|-----------------|-----------------|-----------------|
A|-0-----0-----0---|-(0)-------------|-----------------|-----------------|
E|-----------------|-----------------|-0---r-----------|-----------------|

G|-----------------|-----------------| 
D|-----------------|-----------------|
A|-----------------|---------------0-|
E|-----------------|-----------------|

[Solo]
G|-----------------|-----------------|-----------------|-----------------| 
D|-----------------|-----------------|-----------------|-----------------|
A|-----0---0---0---|-0---0---5-----0-|-----0---0---0---|-0---0---0---0-0-|
E|-----------------|-----------------|-----------------|-----------------|

G|-----------------|-----------------|-----------------|-----------------| 
D|-----------------|-----------------|-----------------|-----------------|
A|-----0---0---0---|-0---0---5-----0-|-----0---0---0---|-0---0---0---0-2-|
E|-----------------|-----------------|-----------------|-----------------|

G|-----------------|-----------------|-----------------|-----------------| 
D|-----------------|---------2-------|-----------------|-----------------|
A|-----2---2---2---|-2---2---------2-|-----2---2---2---|-2---2---2---2-2-|
E|-----------------|-----------------|-----------------|-----------------|

G|-----------------|-----------------|-----------------|-----------------| 
D|-----------------|---------2-------|-----------------|-----------------|
A|-----2---2---2---|-2---2---------2-|-----2---2---2---|-2---2---2---2---|
E|-----------------|-----------------|-----------------|-----------------|

G|-----------------|-----------------|-----------------|-----------------| 
D|-----------------|-----------------|-----------------|-----------------|
A|-2---2---2---2---|-2---2---2---2---|-2---2---2---2---|-2---2---2---2---|
E|-----------------|-----------------|-----------------|-----------------|

G|-----------------|-----------------|-----------------|-----------------| 
D|-----------------|-----------------|-----------------|-----------------|
A|-2---2---2---2---|-2---2---2---2---|-5---5---5---5---|-5---5---5---5---|
E|-----------------|-----------------|-----------------|-----------------|

[Outro]
G|-----------------|-----------------|-----------------|-----------------| (x3)
D|-----------------|-----------------|-----------------|-----------------|
A|-----------------|-----------------|-----------------|-----------------|
E|-0-0-0-0-0-0-0-0-|-0-0-0-0-0-0-0-0-|-0-0-0-0-0-0-0-0-|-0-0-0-0-0-0-0-0-|

G|-----------------|-----------------|-----------------|-----------------| 
D|-----------------|-----------------|-----------------|-----------------|
A|-----------------|-----------------|-----------------|-----------------|
E|-0---------------|-(0)-------------|-(0)-------------|-(0)-------------|

G|-----------------|-----------------|-----------------|-----------------| 
D|-----------------|-----------------|-----------------|-----------------|
A|-----------------|-----------------|-----------------|-----------------|
E|-0---------------|-0---------------|-0---------------|-0---------------|

G|-----------------|-----------------|-----------------|-----------------| 
D|-----------------|-----------------|-----------------|-----------------|
A|-----------------|-----------------|-----------------|-----------------|
E|-0-------0-------|-0-------0-------|-0---0---0---0---|-0---0---0---0---|

G|-----------------|-----------------|-----------------|---------------------|
D|-----------------|-----------------|-----------------|---------------------|
A|-----------------|-----------------|-----------------|---------------------|
E|-0-0-0-0-0-0-0-0-|-0-0-0-0-0-0-0-0-|-0-0-2-2-3-3-5-5-|-7-7-8-8-10-10-11-11-|

G|-------------------------|-------------------------|-------------------------|-------------------------|
D|-------------------------|-------------------------|-------------------------|-------------------------|
A|-------------------------|-------------------------|-------------------------|-------------------------|
E|-12-12-12-12-12-12-12-12-|-12-12-12-12-12-12-12-12-|-12-12-12-12-12-12-12-12-|-12-12-12-12-12-12-12-12-|

G|-----------------|-----------------|-----------------|
D|-----------------|-----------------|-----------------|
A|-----------------|-----------------|-----------------|
E|-12--------------|-(12)------------|-12\-------------|


************************************

| x   Dead note
| (n) Ghost note
| r   Release
| \   Slide down

************************************

            
            
Suggest correction
Creating personal tab
Creating personal tab
You can edit any tab online and save it as your Personal.

You can edit, replace or remove any tab part or add personal notes – all changes will be seen only by you.

Personal tabs can be accessed anytime from any device, even offline.
Learn more »
Give kudos to tab author, rate the tab!
1 2 3 4 5
comments
print report bad tab
guest
You may want to rate the tab now too:
select rating
Wanna post a correction for this tab? Suggest correction