Oops, an error
Loading. Please wait.

Beating Around The Bush tab

version 2
version 2

Whole song

Interactive

by AC/DC
1,648 views 102 this week
3 commentsread comments
1 2 3 4 5
x 4
add to favorites
×
Save as Personal and add changes to this tab that will be seen only by you. Learn more ›
×
You can save this tab as Personal to edit and correct it or add notes. All changes will be seen only by you. Learn more »
launch autoscroll
font size
0
reset
how to read this tab
guitar tuner
backing track
0:00
0:00
edit
Autoscroll
slow
fast
+/-
esc
set tempo
stop
Author
-------------------------------------------------------------------------------
                             Beating Around the Bush - AC/DC
-------------------------------------------------------------------------------
Tabbed by: xShaDDowZx
E-mail: xShaDDowZx@gmail;.com

Tuning: EADGBE

Intro

e|---------------------------------------------------------------------------|
B|---------------------------------------------------------------------------|
G|---------------------------------------------------------------------------|
D|----------0----------------------------------------------------------------|
A|----0h1h2------------------------------------------------------------------|
E|-0h3-----------------------------------------------------------------------|x2

e|---------------------------------------------------------------------------|
B|---------------------------------------------------------------------------|
G|--------------------------1---------------------1--------------------------|
D|----------0---------------2-----------0---------2--------------------------|
A|-----0h1h2-2p1p0----------2------0h1h2-2p1p0----2--------------------------|
E|-0h3------------3p0-3p0-0-0---0h3-----------3p0-0--------------------------|x4

Verse 1

e|---------------------------------------------------------------------------|
B|-------------------------------------------------------3-------------------|
G|--------------------------------------------------1----2-2-2-------------1-|
D|--------------------------------------------------2----0-2-2-------------2-|
A|--------------------------------------------------2------0-0-------------2-|
E|--------------------------------------------------0----------3p0-3p0-0-0-2-|x8

Chorus

e|---------------------------------------------------------------------------|
B|---------3-3-3-------------------------------------------------------------|
G|-1-1-1---2-2-2---2-2-2---1-------------------------------------------------|
D|-2-2-2---0-0-0---2-2-2---2-------------------------------------------------|
A|-2-2-2-----------0-0-0---2-------------------------------------------------|
E|-0-0-0-------------------0-------------------------------------------------|

Verse 2

e|---------------------------------------------------------------------------|
B|-------------------------------------------------------3-------------------|
G|--7b9~-------------------------------------------------2-2-2-------------1-| 
D|-------------------------------------------------------0-2-2-------------2-|
A|---------------------------------------------------------0-0-------------2-|
E|-------------------------------------------------------------3p0-3p0-0-0-2-|

e|---------------------------------------------------------------------------|
B|--10b12~-----------------------------------------------3-------------------|
G|-------------------------------------------------------2-2-2-------------1-|
D|-------------------------------------------------------0-2-2-------------2-|
A|---------------------------------------------------------0-0-------------2-|
E|-------------------------------------------------------------3p0-3p0-0-0-2-|

e|---------------------------------------------------------------------------|
B|-------------------------------------------------------3-------------------|
G|--7b9~-------------------------------------------------2-2-2-------------1-|
D|-------------------------------------------------------0-2-2-------------2-|
A|---------------------------------------------------------0-0-------------2-|
E|-------------------------------------------------------------3p0-3p0-0-0-2-|

e|---------------------------------------------------------------------------|
B|--15b17~-----------------------------------------------3-------------------|
G|-------------------------------------------------------2-2-2-------------1-|
D|-------------------------------------------------------0-2-2-------------2-|
A|---------------------------------------------------------0-0-------------2-|
E|-------------------------------------------------------------3p0-3p0-0-0-2-|

e|---------------------------------------------------------------------------|
B|--12b15-10b12-10-8-pb12pbr10p8-10b12~------------------3-------------------|
G|-------------------------------------------------------2-2-2-------------1-|
D|-------------------------------------------------------0-2-2-------------2-|
A|---------------------------------------------------------0-0-------------2-|
E|-------------------------------------------------------------3p0-3p0-0-0-2-|

e|---------------------------------------------------------------------------|
B|--10b12-12-12-12-12br10p8-10b12~-----------------------3-------------------|
G|-------------------------------------------------------2-2-2-------------1-|
D|-------------------------------------------------------0-2-2-------------2-|
A|---------------------------------------------------------0-0-------------2-|
E|-------------------------------------------------------------3p0-3p0-0-0-2-|


e|---------------------------------------------------------------------------|
B|--12b15-b15-b15br12b15br12-15b17~----------------------3-------------------|
G|-------------------------------------------------------2-2-2-------------1-|
D|-------------------------------------------------------0-2-2-------------2-|
A|---------------------------------------------------------0-0-------------2-|
E|-------------------------------------------------------------3p0-3p0-0-0-2-|


e|---------------------------------------------------------------------------|
B|--7b8-7b8-7b8---pb12pbr10p8----------------------------3-------------------|
G|--------------9----------------------------------------2-2-2-------------1-|
D|----------------------------10/12~---------------------0-2-2-------------2-|
A|---------------------------------------------------------0-0-------------2-|
E|-------------------------------------------------------------3p0-3p0-0-0-2-|


************************************

| /   slide up
| \   slide down
| h   hammer-on
| p   pull-off
| ~   vibrato
| +   harmonic
| x   Mute note
| b   Bend
| pb  Pre-bend
| br  Bend release
| pbr Pre-bend release
| brb Bend release bend

************************************

            
            
Suggest correction
Creating personal tab
Creating personal tab
You can edit any tab online and save it as your Personal.

You can edit, replace or remove any tab part or add personal notes – all changes will be seen only by you.

Personal tabs can be accessed anytime from any device, even offline.
Learn more »
comments
print report bad tab
3 comments total.
0 reply
ryanelatimer 10 Apr 21, 2017 01:17 PM

hey,I may be wrong, but isn't the tuning supposed to be half step down? Thats what I usually play in, but I may be wrong.

+1 reply
xShaDDowZx 506 Jun 11, 2017 01:28 PM

Hey, on most of the songs they recorded in the Bon Scott era, the tuning tends to be about 1/8 down from standard tuning

0 reply
xShaDDowZx 506 Sep 24, 2017 01:01 PM

The album version is definitely in standard tuning, you may be playing along to videos that have had the pitch changed to avoid being taken down due to copyright

guest
You may want to rate the tab now too:
select rating
Wanna post a correction for this tab? Suggest correction