Oops, an error
Loading. Please wait.
We have an official Big Balls tab made by UG professional guitarists. Check out the tab »
×

Big Balls bass

version 1
version 1

Whole song

  • This tab is different from the other tabs because ... Show more

Interactive

by AC/DC
8,588 views 6 this week
4 commentsread comments
1 2 3 4 5
x 14
add to favorites
×
Save as Personal and add changes to this tab that will be seen only by you. Learn more ›
×
You can save this tab as Personal to edit and correct it or add notes. All changes will be seen only by you. Learn more »
launch autoscroll
font size
0
reset
guitar tuner
backing track
0:00
0:00
edit
Autoscroll
slow
fast
+/-
esc
set tempo
stop
AC/DC
Big Balls

Hres the seventh tab
BIG BALLS
opening,you should slide from note to note
---------------------------------------------------------
---------------------------------------------------------
--7---3---7---3---7---3---7---3---5---7-7-7-7-7----------
---------------------------------------------------------
verse
---------------------------------------------------------
---------------------------------------------------------
--3---3---3---3---3---3---3---3---3(etc.)----------------
---------------------------------------------------------
chorus
---------------------------------------------------------
---------------------------------------------------------
--5--5--5--5-3-7--7--7--7-3--5--5--5--5-3--7--7--7(etc.)-
---------------------------------------------------------
chorus(cont'd)slide these notes
---------------------------------------------------------
---------------------------------------------------------
--3--5--5--5--7--7--7--5--5--5--0--3---------------------
---------------------------------------------------------
Tabbed by B.J.Lisko
JLisko44@aol.com




            
            
Suggest correction
Creating personal tab
Creating personal tab
You can edit any tab online and save it as your Personal.

You can edit, replace or remove any tab part or add personal notes – all changes will be seen only by you.

Personal tabs can be accessed anytime from any device, even offline.
Learn more »
comments
print report bad tab
4 comments total. Showing first comments.
0 reply
Corpse_Sledding 10 May 09, 2006 04:57 PM

I'm sorry, but this sounds all sorts of wrong with the recording. I don't know if you tabbed this without or what, but it's not accurate. The verse sounds wrong, the chorus sounds wrong.. Try to fix it.

The Corpse

0 reply
feedmegrease 115 Jan 23, 2007 09:33 AM

Oops. I went to click 4 but accidentally hit 2. Anyways, good tab. Simple and easy.

0 reply
Arlondiluthel 10 Aug 08, 2008 11:37 PM

the chorus is way off. I've been playing along with songs, with the treble turned down to 1 and the bass on 11 (yes, my surround sound system has an 11). The chorus goes like this:

--------|--------|
--------|--------|
7-7-7-7-|3-3-3-3-|
--------|--------|
repeat as needed (that'll be a lot at the end, as the song fades out)

guest
Wanna post a correction for this tab? Suggest correction