Oops, an error
Loading. Please wait.
We have an official Black Ice tab made by UG professional guitarists. Check out the tab »
×
by AC/DC
39,347 views 12 this week
5 commentsread comments
1 2 3 4 5
x 4
add to favorites
guitar tuner
Autoscroll
slow
fast
+/-
esc
set tempo
stop
"Black Ice"
demo version
Play now

or get full version for Free

×
Get full version now!
Learn and play this song
in Tab Pro
Try for free

or get $10 off Welcome Bonus

Get welcome bonus
Get access to Tab Pro version of “Black Ice”!
Tab Pro is a premium guitar tab service, available on PC, Mac, iOS and Android
TRY FOR FREE
To download “Black Ice” Guitar Pro tab click button below
Please note that you must have Guitar Pro software installed on your
computer in order to view this file.
Suggest correction
comments
report bad tab
5 comments total. Showing first comments.
-1 reply
m0op 41 Oct 20, 2009 05:40 AM

The guitar part seems to be ok so far except that it's

---------------------------
-----7--------6---5--3-----
-----7--------5---4----4-2-
--9-----9--9---------------
---------------------------
---------------------------

instead of
---------------------------
-----7--------6---5--3-----
-----7--------5---2----4-2-
--9-----9--9---------------
---------------------------
---------------------------

i think

The bass part seems to be very wrong, i suppose it's
-------------------------------
-------------------------------
---------------6p-5---5--3-----
--5h--8--5--5-------5------3-5-

for the main part and
-----------------------------
-----0--------3-2-0-2--0-----
--2-----2--2-------------2-0-
-----------------------------

where they go up a note

0 reply
Vassilious 10 May 17, 2010 07:07 AM

Correct about the bass. My only concern was if the bass plays each note of the riff like the guitar. I noticed also that sometimes it's just the A or the B (in the 'upper' part).

0 reply
denis.hizman 57 Apr 22, 2014 07:02 AM

this is right. i have made it with my ear:

----------------------------------------
-----7--------10--9--7------------------
-----7--------10--9--7------------------
--9-----9--9------------9h7-------------
----------------------------------------
----------------------------------------

try it :D
i think that is good :D

guest